  0
SECTION
  2
HEADER
  9
$ACADVER
  1
AC1009
  9
$INSBASE
 10
0.0
 20
0.0
 30
0.0
  9
$EXTMIN
 10
946.8199824121192
 20
513.1076502692747
 30
-0.0015258207003583
  9
$EXTMAX
 10
1222.6407875988
 20
621.90093258373281
 30
0.0000000349246037
  9
$LIMMIN
 10
0.0
 20
0.0
  9
$LIMMAX
 10
420.0
 20
297.0
  9
$ORTHOMODE
 70
     1
  9
$REGENMODE
 70
     1
  9
$FILLMODE
 70
     1
  9
$QTEXTMODE
 70
     0
  9
$MIRRTEXT
 70
     1
  9
$DRAGMODE
 70
     2
  9
$LTSCALE
 40
1.0
  9
$OSMODE
 70
    40
  9
$ATTMODE
 70
     1
  9
$TEXTSIZE
 40
2.5
  9
$TRACEWID
 40
1.0
  9
$TEXTSTYLE
  7
STANDARD
  9
$CLAYER
  8
0
  9
$CELTYPE
  6
BYLAYER
  9
$CECOLOR
 62
   256
  9
$DIMSCALE
 40
1.0
  9
$DIMASZ
 40
2.5
  9
$DIMEXO
 40
0.625
  9
$DIMDLI
 40
3.75
  9
$DIMRND
 40
0.0
  9
$DIMDLE
 40
0.0
  9
$DIMEXE
 40
1.25
  9
$DIMTP
 40
0.0
  9
$DIMTM
 40
0.0
  9
$DIMTXT
 40
2.5
  9
$DIMCEN
 40
2.5
  9
$DIMTSZ
 40
0.0
  9
$DIMTOL
 70
     0
  9
$DIMLIM
 70
     0
  9
$DIMTIH
 70
     1
  9
$DIMTOH
 70
     1
  9
$DIMSE1
 70
     0
  9
$DIMSE2
 70
     0
  9
$DIMTAD
 70
     1
  9
$DIMZIN
 70
     8
  9
$DIMBLK
  1

  9
$DIMASO
 70
     1
  9
$DIMSHO
 70
     1
  9
$DIMPOST
  1

  9
$DIMAPOST
  1

  9
$DIMALT
 70
     0
  9
$DIMALTD
 70
     3
  9
$DIMALTF
 40
0.03937007874016
  9
$DIMLFAC
 40
1.0
  9
$DIMTOFL
 70
     1
  9
$DIMTVP
 40
0.0
  9
$DIMTIX
 70
     0
  9
$DIMSOXD
 70
     0
  9
$DIMSAH
 70
     0
  9
$DIMBLK1
  1

  9
$DIMBLK2
  1

  9
$DIMSTYLE
  2
ISO-25
  9
$DIMCLRD
 70
     0
  9
$DIMCLRE
 70
     0
  9
$DIMCLRT
 70
     0
  9
$DIMTFAC
 40
1.0
  9
$DIMGAP
 40
0.625
  9
$LUNITS
 70
     2
  9
$LUPREC
 70
     4
  9
$SKETCHINC
 40
1.0
  9
$FILLETRAD
 40
10.0
  9
$AUNITS
 70
     0
  9
$AUPREC
 70
     0
  9
$MENU
  1
.
  9
$ELEVATION
 40
0.0
  9
$PELEVATION
 40
0.0
  9
$THICKNESS
 40
0.0
  9
$LIMCHECK
 70
     0
  9
$BLIPMODE
 70
     0
  9
$CHAMFERA
 40
10.0
  9
$CHAMFERB
 40
10.0
  9
$SKPOLY
 70
     0
  9
$TDCREATE
 40
2453291.449802882
  9
$TDUPDATE
 40
2453291.5391511922
  9
$TDINDWG
 40
0.0891501273
  9
$TDUSRTIMER
 40
0.0891501273
  9
$USRTIMER
 70
     1
  9
$ANGBASE
 50
0.0
  9
$ANGDIR
 70
     0
  9
$PDMODE
 70
     3
  9
$PDSIZE
 40
2.0
  9
$PLINEWID
 40
0.0
  9
$COORDS
 70
     0
  9
$SPLFRAME
 70
     0
  9
$SPLINETYPE
 70
     6
  9
$SPLINESEGS
 70
     8
  9
$ATTDIA
 70
     0
  9
$ATTREQ
 70
     1
  9
$HANDLING
 70
-16383
  9
$HANDSEED
  5
10B5
  9
$SURFTAB1
 70
     6
  9
$SURFTAB2
 70
     6
  9
$SURFTYPE
 70
     6
  9
$SURFU
 70
     6
  9
$SURFV
 70
     6
  9
$UCSNAME
  2

  9
$UCSORG
 10
0.0
 20
0.0
 30
0.0
  9
$UCSXDIR
 10
1.0
 20
0.0
 30
0.0
  9
$UCSYDIR
 10
0.0
 20
1.0
 30
0.0
  9
$PUCSNAME
  2

  9
$PUCSORG
 10
0.0
 20
0.0
 30
0.0
  9
$PUCSXDIR
 10
1.0
 20
0.0
 30
0.0
  9
$PUCSYDIR
 10
0.0
 20
1.0
 30
0.0
  9
$USERI1
 70
     0
  9
$USERI2
 70
     0
  9
$USERI3
 70
     0
  9
$USERI4
 70
     0
  9
$USERI5
 70
     0
  9
$USERR1
 40
0.0
  9
$USERR2
 40
0.0
  9
$USERR3
 40
0.0
  9
$USERR4
 40
0.0
  9
$USERR5
 40
0.0
  9
$WORLDVIEW
 70
     1
  9
$SHADEDGE
 70
     3
  9
$SHADEDIF
 70
    70
  9
$TILEMODE
 70
     1
  9
$MAXACTVP
 70
    48
  9
$PLIMCHECK
 70
     0
  9
$PEXTMIN
 10
28.674485683441159
 20
19.97498331069945
 30
0.0
  9
$PEXTMAX
 10
258.0703711509704
 20
179.77484979629509
 30
0.0
  9
$PLIMMIN
 10
-5.027069091796875
 20
-5.0270833969116211
  9
$PLIMMAX
 10
291.98358154296869
 20
204.98858737945551
  9
$UNITMODE
 70
     0
  9
$VISRETAIN
 70
     1
  9
$PLINEGEN
 70
     0
  9
$PSLTSCALE
 70
     1
  0
ENDSEC
  0
SECTION
  2
TABLES
  0
TABLE
  2
VPORT
 70
    37
  0
VPORT
  2
*ACTIVE
 70
     0
 10
0.0
 20
0.0
 11
1.0
 21
1.0
 12
1084.7303850054591
 22
567.50429142650376
 13
0.0
 23
0.0
 14
10.0
 24
10.0
 15
10.0
 25
10.0
 16
0.0
 26
0.0
 36
1.0
 17
0.0
 27
0.0
 37
0.0
 40
183.79816064709649
 41
1.508135168961201
 42
50.0
 43
0.0
 44
0.0
 50
0.0
 51
0.0
 71
     0
 72
   100
 73
     1
 74
     2
 75
     0
 76
     0
 77
     0
 78
     0
  0
ENDTAB
  0
TABLE
  2
LTYPE
 70
    23
  0
LTYPE
  2
CONTINUOUS
 70
     0
  3
Solid line
 72
    65
 73
     0
 40
0.0
  0
LTYPE
  2
CENTER
 70
     0
  3
Center (.5x) ___ _ ___ _ ___ _ ___ _ ___ _ ___
 72
    65
 73
     4
 40
28.574999999999989
 49
19.050000000000001
 49
-3.1749999999999989
 49
3.1749999999999989
 49
-3.1749999999999989
  0
LTYPE
  2
DASHED
 70
     0
  3
Dashed (.5x) _ _ _ _ _ _ _ _ _ _ _ _ _ _ _ _ _
 72
    65
 73
     2
 40
9.5249999999999986
 49
6.3499999999999988
 49
-3.1749999999999989
  0
ENDTAB
  0
TABLE
  2
LAYER
 70
     6
  0
LAYER
  2
0
 70
     0
 62
     7
  6
CONTINUOUS
  0
ENDTAB
  0
TABLE
  2
STYLE
 70
     7
  0
STYLE
  2
STANDARD
 70
     0
 40
0.0
 41
1.0
 50
0.0
 71
     0
 42
2.5
  3
txt
  4

  0
ENDTAB
  0
TABLE
  2
VIEW
 70
     0
  0
ENDTAB
  0
TABLE
  2
UCS
 70
     0
  0
ENDTAB
  0
TABLE
  2
APPID
 70
     8
  0
APPID
  2
ACAD
 70
     0
  0
APPID
  2
GENIUS_GENODEF_13
 70
     0
  0
APPID
  2
GENIUS_GENOBJ-N-CEN_13
 70
     0
  0
APPID
  2
GENIUS_GENOBJ-N-FIL_13
 70
     0
  0
APPID
  2
GENIUS_GENOREF_13
 70
     0
  0
APPID
  2
GENIUS_GENOLIS_13
 70
     0
  0
APPID
  2
GENIUS_GENOENT_13
 70
     0
  0
APPID
  2
GENIUS_GENOBJ-N-CRS_13
 70
     0
  0
ENDTAB
  0
TABLE
  2
DIMSTYLE
 70
    15
  0
DIMSTYLE
  2
ISO-25
 70
     0
  3

  4

  5

  6

  7

 40
1.0
 41
2.5
 42
0.625
 43
3.75
 44
1.25
 45
0.0
 46
0.0
 47
0.0
 48
0.0
140
2.5
141
2.5
142
0.0
143
0.03937007874016
144
1.0
145
0.0
146
1.0
147
0.625
 71
     0
 72
     0
 73
     1
 74
     1
 75
     0
 76
     0
 77
     1
 78
     8
170
     0
171
     3
172
     1
173
     0
174
     0
175
     0
176
     0
177
     0
178
     0
  0
ENDTAB
  0
ENDSEC
  0
SECTION
  2
BLOCKS
  0
BLOCK
  8
0
  2
$MODEL_SPACE
 70
     0
 10
0.0
 20
0.0
 30
0.0
  3
$MODEL_SPACE
  1

  0
ENDBLK
  5
21
  8
0
  0
BLOCK
 67
     1
  8
0
  2
$PAPER_SPACE
 70
     0
 10
0.0
 20
0.0
 30
0.0
  3
$PAPER_SPACE
  1

  0
ENDBLK
  5
53
 67
     1
  8
0
  0
ENDSEC
  0
SECTION
  2
ENTITIES
  0
ARC
  5
168
  8
0
 10
1111.8982661167199
 20
530.31227781555515
 30
0.0
 40
3.0277533998419082
 50
222.80516031495179
 51
317.19483968504812
  0
LINE
  5
169
  8
0
  6
CENTER
 10
1099.8025946411749
 20
540.03767919466497
 30
0.0
 11
1099.8025946411749
 21
523.03767919466497
 31
0.0
1001
GENIUS_GENOREF_13
1005
0
  0
LINE
  5
16A
  8
0
 10
1104.811350795391
 20
527.39493109858029
 30
0.0
 11
1108.40462461435
 21
531.73970257549433
 31
0.0
  0
CIRCLE
  5
16C
  8
0
 10
1099.8025946411749
 20
531.53767919466497
 30
0.0
 40
5.5
  0
CIRCLE
  5
16E
  8
0
 10
1099.8025946411749
 20
531.53767919466497
 30
0.0
 40
4.3099999999999454
  0
ARC
  5
16F
  8
0
 10
1099.8025946411619
 20
531.53767919466986
 30
0.0
 40
6.5000000000134923
 50
320.4058094569624
 51
320.41037898931899
  0
ARC
  5
170
  8
0
 10
1112.084269865401
 20
531.94533642933527
 30
0.0
 40
3.8333294017205128
 50
353.89530935526079
 51
88.851772297024866
  0
ARC
  5
171
  8
0
 10
1110.535671598866
 20
531.53767919466509
 30
0.0
 40
4.8601897820453601
 50
317.51142276866398
 51
42.488577231335938
  0
ARC
  5
172
  8
0
 10
1110.473307847438
 20
531.53735852821103
 30
0.0
 40
3.922265353302643
 50
322.75769910341222
 51
37.242300896587793
  0
LINE
  5
173
  8
0
 10
1099.8025946411749
 20
538.03767919466486
 30
0.0
 11
1099.8025946411749
 21
537.03767919466486
 31
0.0
  0
LINE
  5
176
  8
0
  6
CENTER
 10
1091.3025946411749
 20
531.53767919466497
 30
0.0
 11
1108.3025946411749
 21
531.53767919466497
 31
0.0
1001
GENIUS_GENOREF_13
1005
0
  0
CIRCLE
  5
177
  8
0
 10
1099.8025946411749
 20
531.53767919466497
 30
0.0
 40
3.75
  0
CIRCLE
  5
179
  8
0
 10
1099.8025946411749
 20
531.53767919466497
 30
0.0
 40
3.25
  0
ARC
  5
17A
  8
0
 10
1111.8877072923719
 20
532.73672699434303
 30
0.0
 40
3.0534317433692411
 50
43.033335814832171
 51
143.56399290506729
  0
ARC
  5
17B
  8
0
 10
1113.3232243860009
 20
531.53735852821103
 30
0.0
 40
3.922265353302643
 50
142.75769910341219
 51
217.24230089658781
  0
ARC
  5
17C
  8
0
 10
1111.898085574082
 20
532.7054986553336
 30
0.0
 40
2.0821805471591301
 50
35.37961149406528
 51
144.62038850582621
  0
ARC
  5
17D
  8
0
 10
1111.898085574082
 20
530.36985973399635
 30
0.0
 40
2.0821805471591301
 50
215.3796114941737
 51
324.62038850593473
  0
LINE
  5
17E
  8
0
 10
1104.0409340607559
 20
528.03247178790025
 30
0.0
 11
1104.041011306821
 21
528.03256519247179
 31
0.0
  0
LINE
  5
17F
  8
0
 10
1108.40462461435
 20
531.73970257549433
 30
0.0
 11
1110.2004132311099
 21
533.91106260920503
 31
0.0
  0
ARC
  5
180
  8
0
 10
1113.2608606345741
 20
531.53767919466509
 30
0.0
 40
4.8601897820453601
 50
177.6139937555933
 51
222.48857723133591
  0
LINE
  5
181
  8
0
 10
1105.5691690849781
 20
529.88038646733128
 30
0.0
 11
1109.431158221704
 21
534.5502352173221
 31
0.0
  0
LINE
  5
182
  8
0
 10
1115.8958613809109
 20
531.53767919466497
 30
0.0
 11
1115.3958613809109
 21
531.53767919466497
 31
0.0
  0
LINE
  5
184
  8
0
 10
1127.599639388384
 20
557.95695280469999
 30
0.0
 11
1127.599639388384
 21
589.18195280469979
 31
0.0
  0
LINE
  5
186
  8
0
 10
1137.599639388384
 20
557.95695280469999
 30
0.0
 11
1137.599639388384
 21
589.18195280469979
 31
0.0
  0
LINE
  5
187
  8
0
 10
1127.599639388384
 20
557.95695280469999
 30
0.0
 11
1137.599639388384
 21
557.95695280469999
 31
0.0
  0
LINE
  5
188
  8
0
 10
1128.5039683883849
 20
554.58195280469988
 30
0.0
 11
1136.6953103883841
 21
554.58195280469988
 31
0.0
  0
LINE
  5
189
  8
0
 10
1128.5039683883849
 20
554.58195280469988
 30
0.0
 11
1127.599639388384
 21
557.95695280469999
 31
0.0
  0
LINE
  5
18A
  8
0
 10
1136.6953103883841
 20
554.58195280469988
 30
0.0
 11
1137.599639388384
 21
557.95695280469999
 31
0.0
  0
ARC
  5
18B
  8
0
 10
1128.349639388384
 20
562.6008139746159
 30
0.0
 40
1.75
 50
115.37693352516079
 51
244.62306647486821
  0
ARC
  5
18C
  8
0
  6
DASHED
 10
1128.349639388384
 20
562.60081397461545
 30
0.0
 40
1.750000000000024
 50
244.62306647483899
 51
115.37693352516079
  0
ARC
  5
18D
  8
0
  6
DASHED
 10
1136.849639388384
 20
562.60081397461545
 30
0.0
 40
1.750000000000024
 50
64.623066474839121
 51
295.37693352516089
  0
ARC
  5
18E
  8
0
 10
1136.849639388385
 20
562.6008139746159
 30
0.0
 40
1.75
 50
295.37693352513179
 51
64.623066474839121
  0
LINE
  5
18F
  8
0
 10
1136.349639388384
 20
619.38195280469995
 30
0.0
 11
1136.349639388384
 21
613.6819528046999
 31
0.0
  0
LINE
  5
190
  8
0
 10
1128.849639388384
 20
613.6819528046999
 30
0.0
 11
1128.849639388384
 21
619.38195280469995
 31
0.0
  0
ARC
  5
192
  8
0
 10
1173.1276893883839
 20
598.8119528046999
 30
0.0
 40
35.02805
 50
166.2763919228461
 51
193.72360807715381
  0
ARC
  5
193
  8
0
 10
1092.0715893883839
 20
598.8119528046999
 30
0.0
 40
35.02805
 50
346.27639192284607
 51
13.72360807715387
  0
LINE
  5
194
  8
0
 10
1126.099639388384
 20
590.50195280469995
 30
0.0
 11
1139.099639388384
 21
590.50195280469995
 31
0.0
  0
LINE
  5
195
  8
0
 10
1139.099639388384
 20
589.18195280469979
 30
0.0
 11
1126.099639388384
 21
589.18195280469979
 31
0.0
  0
LINE
  5
196
  8
0
 10
1126.099639388384
 20
589.18195280469979
 30
0.0
 11
1126.099639388384
 21
590.50195280469995
 31
0.0
  0
LINE
  5
197
  8
0
 10
1139.099639388384
 20
590.50195280469995
 30
0.0
 11
1139.099639388384
 21
589.18195280469979
 31
0.0
  0
ARC
  5
199
  8
0
 10
1138.599639388385
 20
608.94195280469989
 30
0.0
 40
0.5
 50
270.0
 51
90.0
  0
ARC
  5
19B
  8
0
 10
1126.599639388384
 20
608.94195280469989
 30
0.0
 40
0.5
 50
90.0
 51
270.0
  0
LINE
  5
19C
  8
0
 10
1139.099639388384
 20
607.12195280469996
 30
0.0
 11
1126.099639388384
 21
607.12195280469996
 31
0.0
  0
LINE
  5
19D
  8
0
 10
1127.099639388384
 20
608.44195280469989
 30
0.0
 11
1138.099639388384
 21
608.44195280469989
 31
0.0
  0
LINE
  5
19E
  8
0
 10
1126.099639388384
 20
608.44195280469989
 30
0.0
 11
1127.099639388384
 21
608.44195280469989
 31
0.0
  0
LINE
  5
19F
  8
0
 10
1126.099639388384
 20
607.12195280469996
 30
0.0
 11
1126.099639388384
 21
608.44195280469989
 31
0.0
  0
LINE
  5
1A0
  8
0
 10
1138.099639388384
 20
608.44195280469989
 30
0.0
 11
1139.099639388384
 21
608.44195280469989
 31
0.0
  0
LINE
  5
1A1
  8
0
 10
1139.099639388384
 20
608.44195280469989
 30
0.0
 11
1139.099639388384
 21
607.12195280469996
 31
0.0
  0
LINE
  5
1A2
  8
0
 10
1138.599639388385
 20
609.44195280469989
 30
0.0
 11
1132.599639388385
 21
609.44195280470012
 31
0.0
  0
LINE
  5
1A3
  8
0
 10
1132.599639388385
 20
610.44195280469989
 30
0.0
 11
1138.599639388385
 21
610.44195280469989
 31
0.0
  0
LINE
  5
1A4
  8
0
 10
1126.599639388384
 20
610.90195280469993
 30
0.0
 11
1138.599639388384
 21
610.90195280469993
 31
0.0
  0
LINE
  5
1A5
  8
0
 10
1127.099639388384
 20
610.49195280469985
 30
0.0
 11
1138.099639388384
 21
610.49195280469985
 31
0.0
  0
LINE
  5
1A6
  8
0
 10
1127.349639388384
 20
611.82587178298866
 30
0.0
 11
1137.849639388384
 21
611.82587178298866
 31
0.0
  0
LINE
  5
1A7
  8
0
 10
1127.349639388384
 20
612.69195280469989
 30
0.0
 11
1137.849639388384
 21
612.69195280469989
 31
0.0
  0
LINE
  5
1A8
  8
0
 10
1128.849639388384
 20
613.6819528046999
 30
0.0
 11
1136.349639388384
 21
613.6819528046999
 31
0.0
  0
LINE
  5
1A9
  8
0
 10
1126.599639388384
 20
609.44195280469989
 30
0.0
 11
1132.599639388385
 21
609.44195280470012
 31
0.0
  0
LINE
  5
1AA
  8
0
 10
1132.599639388385
 20
610.44195280469989
 30
0.0
 11
1126.599639388384
 21
610.44195280469989
 31
0.0
  0
LINE
  5
1AB
  8
0
 10
1127.099639388384
 20
610.44195280469989
 30
0.0
 11
1127.099639388384
 21
610.49195280469985
 31
0.0
  0
ARC
  5
1AC
  8
0
 10
1126.599639388384
 20
609.94195280469989
 30
0.0
 40
0.5
 50
90.0
 51
270.0
  0
LINE
  5
1AD
  8
0
 10
1128.2896393883841
 20
613.6819528046999
 30
0.0
 11
1128.849639388384
 21
613.6819528046999
 31
0.0
  0
LINE
  5
1AE
  8
0
 10
1127.349639388384
 20
612.69195280469989
 30
0.0
 11
1128.2896393883841
 21
613.6819528046999
 31
0.0
  0
LINE
  5
1AF
  8
0
 10
1127.099639388384
 20
610.49195280469985
 30
0.0
 11
1126.599639388384
 21
610.49195280469985
 31
0.0
  0
LINE
  5
1B0
  8
0
 10
1126.599639388384
 20
610.90195280469993
 30
0.0
 11
1127.199639388384
 21
611.82587178298866
 31
0.0
  0
LINE
  5
1B1
  8
0
 10
1126.599639388384
 20
610.49195280469985
 30
0.0
 11
1126.599639388384
 21
610.90195280469993
 31
0.0
  0
LINE
  5
1B2
  8
0
 10
1127.349639388384
 20
611.82587178298866
 30
0.0
 11
1127.349639388384
 21
612.69195280469989
 31
0.0
  0
LINE
  5
1B3
  8
0
 10
1127.199639388384
 20
611.82587178298866
 30
0.0
 11
1127.349639388384
 21
611.82587178298866
 31
0.0
  0
LINE
  5
1B4
  8
0
 10
1137.9996393883839
 20
611.82587178298866
 30
0.0
 11
1138.599639388384
 21
610.90195280469993
 31
0.0
  0
LINE
  5
1B5
  8
0
 10
1138.599639388384
 20
610.49195280469985
 30
0.0
 11
1138.099639388384
 21
610.49195280469985
 31
0.0
  0
LINE
  5
1B6
  8
0
 10
1136.909639388384
 20
613.6819528046999
 30
0.0
 11
1137.849639388384
 21
612.69195280469989
 31
0.0
  0
LINE
  5
1B7
  8
0
 10
1136.349639388384
 20
613.6819528046999
 30
0.0
 11
1136.909639388384
 21
613.6819528046999
 31
0.0
  0
LINE
  5
1B8
  8
0
 10
1137.849639388384
 20
612.69195280469989
 30
0.0
 11
1137.849639388384
 21
611.82587178298866
 31
0.0
  0
LINE
  5
1B9
  8
0
 10
1137.849639388384
 20
611.82587178298866
 30
0.0
 11
1137.9996393883839
 21
611.82587178298866
 31
0.0
  0
LINE
  5
1BA
  8
0
 10
1138.099639388384
 20
610.49195280469985
 30
0.0
 11
1138.099639388384
 21
610.44195280469989
 31
0.0
  0
ARC
  5
1BB
  8
0
 10
1138.599639388385
 20
609.94195280469989
 30
0.0
 40
0.5
 50
270.0
 51
90.0
  0
LINE
  5
1BC
  8
0
 10
1138.599639388384
 20
610.90195280469993
 30
0.0
 11
1138.599639388384
 21
610.49195280469985
 31
0.0
  0
LINE
  5
1BD
  8
0
 10
1128.849639388384
 20
619.38195280469995
 30
0.0
 11
1136.349639388384
 21
619.38195280469995
 31
0.0
  0
LINE
  5
1BE
  8
0
 10
1129.349639388384
 20
619.88195280469995
 30
0.0
 11
1135.849639388384
 21
619.88195280469995
 31
0.0
  0
LINE
  5
1BF
  8
0
 10
1128.849639388384
 20
619.38195280469995
 30
0.0
 11
1129.349639388384
 21
619.88195280469995
 31
0.0
  0
LINE
  5
1C0
  8
0
 10
1135.849639388384
 20
619.88195280469995
 30
0.0
 11
1136.349639388384
 21
619.38195280469995
 31
0.0
  0
LINE
  5
1C1
  8
0
 10
1094.8025946411749
 20
557.95695280469999
 30
0.0
 11
1094.8025946411749
 21
589.18195280469979
 31
0.0
  0
LINE
  5
1C2
  8
0
 10
1104.8025946411749
 20
557.95695280469999
 30
0.0
 11
1104.8025946411749
 21
589.18195280469979
 31
0.0
  0
LINE
  5
1C4
  8
0
 10
1094.8025946411749
 20
557.95695280469999
 30
0.0
 11
1104.8025946411749
 21
557.95695280469999
 31
0.0
  0
LINE
  5
1C5
  8
0
 10
1095.7069236411751
 20
554.58195280469988
 30
0.0
 11
1103.8982656411749
 21
554.58195280469988
 31
0.0
  0
LINE
  5
1C6
  8
0
 10
1095.7069236411751
 20
554.58195280469988
 30
0.0
 11
1094.8025946411749
 21
557.95695280469999
 31
0.0
  0
LINE
  5
1C7
  8
0
 10
1103.8982656411749
 20
554.58195280469988
 30
0.0
 11
1104.8025946411749
 21
557.95695280469999
 31
0.0
  0
CIRCLE
  5
1C8
  8
0
 10
1099.8025946411749
 20
562.60081397461545
 30
0.0
 40
1.5811388300846809
  0
LINE
  5
1C9
  8
0
 10
1103.5525946411749
 20
619.38195280469995
 30
0.0
 11
1103.5525946411749
 21
613.6819528046999
 31
0.0
  0
LINE
  5
1CA
  8
0
 10
1096.0525946411749
 20
613.6819528046999
 30
0.0
 11
1096.0525946411749
 21
619.38195280469995
 31
0.0
  0
ARC
  5
1CC
  8
0
 10
1140.3306446411759
 20
598.8119528046999
 30
0.0
 40
35.02805
 50
166.2763919228461
 51
193.72360807715381
  0
ARC
  5
1CD
  8
0
 10
1059.274544641175
 20
598.8119528046999
 30
0.0
 40
35.02805
 50
346.27639192284607
 51
13.72360807715387
  0
LINE
  5
1CE
  8
0
 10
1106.3025946411749
 20
589.18195280469979
 30
0.0
 11
1093.3025946411749
 21
589.18195280469979
 31
0.0
  0
LINE
  5
1CF
  8
0
 10
1093.3025946411749
 20
590.50195280469995
 30
0.0
 11
1106.3025946411749
 21
590.50195280469995
 31
0.0
  0
LINE
  5
1D0
  8
0
 10
1093.3025946411749
 20
589.18195280469979
 30
0.0
 11
1093.3025946411749
 21
590.50195280469995
 31
0.0
  0
LINE
  5
1D1
  8
0
 10
1106.3025946411749
 20
590.50195280469995
 30
0.0
 11
1106.3025946411749
 21
589.18195280469979
 31
0.0
  0
LINE
  5
1D2
  8
0
 10
1105.780453334758
 20
610.44195280469989
 30
0.0
 11
1093.802594641174
 21
610.44195280469989
 31
0.0
  0
LINE
  5
1D3
  8
0
 10
1093.802594641174
 20
609.44195280469989
 30
0.0
 11
1105.9814152290801
 21
609.44195280470012
 31
0.0
  0
LINE
  5
1D4
  8
0
 10
1096.0525946411749
 20
613.6819528046999
 30
0.0
 11
1103.5525946411749
 21
613.6819528046999
 31
0.0
  0
LINE
  5
1D5
  8
0
 10
1094.5525946411749
 20
612.69195280469989
 30
0.0
 11
1105.0525946411749
 21
612.69195280469989
 31
0.0
  0
LINE
  5
1D6
  8
0
 10
1094.5525946411749
 20
611.82587178298866
 30
0.0
 11
1105.0525946411749
 21
611.82587178298866
 31
0.0
  0
LINE
  5
1D7
  8
0
 10
1093.8025946411749
 20
610.90195280469993
 30
0.0
 11
1105.8025946411749
 21
610.90195280469993
 31
0.0
  0
LINE
  5
1D8
  8
0
 10
1094.3025946411749
 20
610.49195280469985
 30
0.0
 11
1105.3025946411749
 21
610.49195280469985
 31
0.0
  0
LINE
  5
1D9
  8
0
 10
1094.3025946411749
 20
608.44195280469989
 30
0.0
 11
1105.3025946411749
 21
608.44195280469989
 31
0.0
  0
LINE
  5
1DA
  8
0
 10
1106.3025946411749
 20
607.12195280469996
 30
0.0
 11
1093.3025946411749
 21
607.12195280469996
 31
0.0
  0
ARC
  5
1DB
  8
0
 10
1093.8025946411749
 20
608.94195280469989
 30
0.0
 40
0.5
 50
90.0
 51
270.0
  0
LINE
  5
1DD
  8
0
 10
1093.3025946411749
 20
607.12195280469996
 30
0.0
 11
1093.3025946411749
 21
608.44195280469989
 31
0.0
  0
LINE
  5
1DE
  8
0
 10
1093.3025946411749
 20
608.44195280469989
 30
0.0
 11
1094.3025946411749
 21
608.44195280469989
 31
0.0
  0
ARC
  5
1DF
  8
0
 10
1093.8025946411749
 20
609.94195280469989
 30
0.0
 40
0.5
 50
90.0
 51
270.0
  0
LINE
  5
1E0
  8
0
 10
1094.3025946411749
 20
610.44195280469989
 30
0.0
 11
1094.3025946411749
 21
610.49195280469985
 31
0.0
  0
LINE
  5
1E1
  8
0
 10
1094.402594641175
 20
611.82587178298866
 30
0.0
 11
1094.5525946411749
 21
611.82587178298866
 31
0.0
  0
LINE
  5
1E2
  8
0
 10
1094.5525946411749
 20
611.82587178298866
 30
0.0
 11
1094.5525946411749
 21
612.69195280469989
 31
0.0
  0
LINE
  5
1E3
  8
0
 10
1093.8025946411749
 20
610.49195280469985
 30
0.0
 11
1093.8025946411749
 21
610.90195280469993
 31
0.0
  0
LINE
  5
1E4
  8
0
 10
1093.8025946411749
 20
610.90195280469993
 30
0.0
 11
1094.402594641175
 21
611.82587178298866
 31
0.0
  0
LINE
  5
1E5
  8
0
 10
1094.3025946411749
 20
610.49195280469985
 30
0.0
 11
1093.8025946411749
 21
610.49195280469985
 31
0.0
  0
LINE
  5
1E6
  8
0
 10
1094.5525946411749
 20
612.69195280469989
 30
0.0
 11
1095.4925946411749
 21
613.6819528046999
 31
0.0
  0
LINE
  5
1E7
  8
0
 10
1095.4925946411749
 20
613.6819528046999
 30
0.0
 11
1096.0525946411749
 21
613.6819528046999
 31
0.0
  0
ARC
  5
1E9
  8
0
 10
1105.8025946411749
 20
608.94195280469989
 30
0.0
 40
0.5
 50
270.0
 51
90.0
  0
LINE
  5
1EA
  8
0
 10
1106.3025946411749
 20
608.44195280469989
 30
0.0
 11
1106.3025946411749
 21
607.12195280469996
 31
0.0
  0
LINE
  5
1EB
  8
0
 10
1105.3025946411749
 20
608.44195280469989
 30
0.0
 11
1106.3025946411749
 21
608.44195280469989
 31
0.0
  0
LINE
  5
1EC
  8
0
 10
1115.3797175135171
 20
614.79577946325719
 30
0.0
 11
1109.384526985134
 21
610.17975405947266
 31
0.0
  0
LINE
  5
1ED
  8
0
 10
1115.8246819688179
 20
613.89291469902332
 30
0.0
 11
1109.329491440435
 21
610.14291469902332
 31
0.0
  0
LINE
  5
1EE
  8
0
 10
1114.7696464241189
 20
615.58812614614237
 30
0.0
 11
1108.7744558957349
 21
610.97210074235829
 31
0.0
  0
LINE
  5
1EF
  8
0
 10
1105.9054533347571
 20
610.47544645375376
 30
0.0
 11
1114.8246819688179
 21
615.62496550659182
 31
0.0
  0
ARC
  5
1F0
  8
0
 10
1105.780453334758
 20
610.69195280469989
 30
0.0
 40
0.25
 50
270.0
 51
299.99999999999972
1001
GENIUS_GENOBJ-N-FIL_13
1002
{
1000
OWNER
1000
GEN
1002
}
1001
GENIUS_GENODEF_13
1002
{
1000
HIER
1070
     0
1002
}
1002
{
1000
MANEDIT
1070
     0
1002
}
1002
{
1000
NOSEL
1070
     0
1002
}
1002
{
1000
BEHIND
1070
     0
1002
}
1002
{
1000
OTHER
1070
     0
1002
}
1002
{
1000
REACTOR
1002
}
  0
ARC
  5
1F1
  8
0
 10
1105.9814152290801
 20
609.94195280470001
 30
0.0
 40
0.5
 50
270.0
 51
299.99999999999972
1001
GENIUS_GENOBJ-N-FIL_13
1002
{
1000
OWNER
1000
GEN
1002
}
1001
GENIUS_GENODEF_13
1002
{
1000
HIER
1070
     0
1002
}
1002
{
1000
MANEDIT
1070
     0
1002
}
1002
{
1000
NOSEL
1070
     0
1002
}
1002
{
1000
BEHIND
1070
     0
1002
}
1002
{
1000
OTHER
1070
     0
1002
}
1002
{
1000
REACTOR
1002
}
  0
ARC
  5
1F2
  8
0
 10
1109.079491440435
 20
610.57592740091525
 30
0.0
 40
0.499999999999992
 50
119.9999999999997
 51
307.59464336859429
  0
LINE
  5
1F3
  8
0
 10
1105.3025946411749
 20
610.49195280469985
 30
0.0
 11
1105.3025946411749
 21
610.44195280469989
 31
0.0
  0
LINE
  5
1F4
  8
0
 10
1105.8025946411749
 20
610.90195280469993
 30
0.0
 11
1105.8025946411749
 21
610.49195280469985
 31
0.0
  0
LINE
  5
1F5
  8
0
 10
1105.0525946411749
 20
611.82587178298866
 30
0.0
 11
1105.202594641175
 21
611.82587178298866
 31
0.0
  0
LINE
  5
1F6
  8
0
 10
1105.0525946411749
 20
612.69195280469989
 30
0.0
 11
1105.0525946411749
 21
611.82587178298866
 31
0.0
  0
LINE
  5
1F7
  8
0
 10
1105.8025946411749
 20
610.49195280469985
 30
0.0
 11
1105.3025946411749
 21
610.49195280469985
 31
0.0
  0
LINE
  5
1F8
  8
0
 10
1105.202594641175
 20
611.82587178298866
 30
0.0
 11
1105.8025946411749
 21
610.90195280469993
 31
0.0
  0
LINE
  5
1F9
  8
0
 10
1104.1125946411751
 20
613.6819528046999
 30
0.0
 11
1105.0525946411749
 21
612.69195280469989
 31
0.0
  0
LINE
  5
1FA
  8
0
 10
1103.5525946411749
 20
613.6819528046999
 30
0.0
 11
1104.1125946411751
 21
613.6819528046999
 31
0.0
  0
LINE
  5
1FB
  8
0
 10
1106.231415229081
 20
609.50894010280786
 30
0.0
 11
1108.829491440435
 21
611.00894010280786
 31
0.0
  0
LINE
  5
1FC
  8
0
  6
CENTER
 10
1114.077086704626
 20
609.41983848766972
 30
0.0
 11
1110.077086704626
 21
616.34804171794553
 31
0.0
1001
GENIUS_GENOBJ-N-CEN_13
1002
{
1000
OWNER
1000
GEN
1002
}
1001
GENIUS_GENODEF_13
1002
{
1000
HIER
1070
     0
1002
}
1002
{
1000
MANEDIT
1070
     0
1002
}
1002
{
1000
NOSEL
1070
     0
1002
}
1002
{
1000
BEHIND
1070
     0
1002
}
1002
{
1000
OTHER
1070
     0
1002
}
1002
{
1000
REACTOR
1002
}
  0
ARC
  5
1FD
  8
0
 10
1115.0746819688179
 20
615.19195280469989
 30
0.0
 40
0.5000000000000308
 50
299.99999999999972
 51
127.5946433685943
  0
CIRCLE
  5
1FE
  8
0
 10
1115.5746819688179
 20
614.32592740091525
 30
0.0
 40
0.499999999999992
  0
LINE
  5
1FF
  8
0
 10
1096.0525946411749
 20
619.38195280469995
 30
0.0
 11
1103.5525946411749
 21
619.38195280469995
 31
0.0
  0
LINE
  5
200
  8
0
 10
1096.5525946411749
 20
619.88195280469995
 30
0.0
 11
1103.0525946411749
 21
619.88195280469995
 31
0.0
  0
LINE
  5
201
  8
0
 10
1096.0525946411749
 20
619.38195280469995
 30
0.0
 11
1096.5525946411749
 21
619.88195280469995
 31
0.0
  0
LINE
  5
202
  8
0
 10
1103.0525946411749
 20
619.88195280469995
 30
0.0
 11
1103.5525946411749
 21
619.38195280469995
 31
0.0
  0
ARC
  5
3F5
  8
0
 10
1099.8025946411749
 20
531.53767919466497
 30
0.0
 40
6.5
 50
352.6133027780981
 51
320.40580960374558
  0
CIRCLE
  5
436
  8
0
 10
1099.8025946411749
 20
531.53767919466497
 30
0.0
 40
6.0
  0
LINE
  5
475
  8
0
  6
CENTER
 10
1099.8025946411749
 20
621.88195280469995
 30
0.0
 11
1099.8025946411749
 21
552.58195280469999
 31
0.0
  0
LINE
  5
4B4
  8
0
  6
CENTER
 10
1132.599639388384
 20
621.88195280469995
 30
0.0
 11
1132.599639388384
 21
552.58195280469999
 31
0.0
  0
ARC
  5
6B2
  8
0
 10
1182.3342848642801
 20
522.64050982636377
 30
0.0
 40
6.5
 50
172.61330277810291
 51
320.41037887868538
  0
ARC
  5
6B3
  8
0
 10
1182.3342848642801
 20
522.64050982636377
 30
0.0
 40
7.5
 50
183.2425033384269
 51
350.33452918638369
  0
ARC
  5
6B5
  8
0
 10
1194.4193975154769
 20
523.83955762604194
 30
0.0
 40
3.0534317433692411
 50
43.033335814833279
 51
143.56399290506829
  0
ARC
  5
6B6
  8
0
 10
1194.4299563398249
 20
521.41510844725406
 30
0.0
 40
3.0277533998419082
 50
222.80516031495071
 51
317.1948396850492
  0
LINE
  5
6B7
  8
0
 10
1190.936314837455
 20
522.84253320719324
 30
0.0
 11
1192.7321034542149
 21
525.01389324090394
 31
0.0
  0
ARC
  5
6B8
  8
0
 10
1195.8549146091059
 20
522.64018915990994
 30
0.0
 40
3.922265353302643
 50
142.7576991034112
 51
217.24230089658869
  0
CIRCLE
  5
6B9
  8
0
 10
1182.3342848642801
 20
522.64050982636377
 30
0.0
 40
5.5
  0
CIRCLE
  5
6BA
  8
0
 10
1182.3342848642801
 20
522.64050982636377
 30
0.0
 40
6.0
  0
CIRCLE
  5
6BB
  8
0
 10
1182.3342848642801
 20
522.64050982636377
 30
0.0
 40
5.25
  0
CIRCLE
  5
6BC
  8
0
 10
1182.3342848642801
 20
522.64050982636377
 30
0.0
 40
4.3099999999999454
  0
ARC
  5
6BD
  8
0
 10
1182.3342848642801
 20
522.64050982636377
 30
0.0
 40
6.5
 50
352.61330277810282
 51
172.61330277810291
  0
ARC
  5
6BE
  8
0
 10
1182.334284864279
 20
522.64050982636377
 30
0.0
 40
7.5
 50
3.2425033384269781
 51
183.2425033384269
  0
LINE
  5
6BF
  8
0
  6
CENTER
 10
1182.3342848642801
 20
513.14050982636377
 30
0.0
 11
1182.3342848642801
 21
532.14050982636377
 31
0.0
1001
GENIUS_GENOREF_13
1005
0
  0
CIRCLE
  5
6C0
  8
0
 10
1182.3342848642801
 20
522.64050982636377
 30
0.0
 40
3.75
  0
CIRCLE
  5
6C1
  8
0
 10
1182.3342848642801
 20
522.64050982636377
 30
0.0
 40
3.25
  0
ARC
  5
6C3
  8
0
 10
1195.7925508576791
 20
522.64050982636377
 30
0.0
 40
4.8601897820453601
 50
177.6139937555933
 51
222.48857723133591
  0
LINE
  5
6C4
  8
0
 10
1186.5726242838609
 20
519.13530241959927
 30
0.0
 11
1188.100859308084
 21
520.98321709903041
 31
0.0
  0
LINE
  5
6C5
  8
0
 10
1187.343041018496
 20
518.49776173027908
 30
0.0
 11
1189.7278210883239
 21
521.38129495043995
 31
0.0
  0
ARC
  5
6C6
  8
0
 10
1182.3342848642801
 20
522.64050982636377
 30
0.0
 40
7.5
 50
350.33452918638369
 51
3.2425033384269781
  0
LINE
  5
6C7
  8
0
 10
1188.100859308084
 20
520.98321709903041
 30
0.0
 11
1191.962848444809
 21
525.65306584902078
 31
0.0
  0
LINE
  5
6C8
  8
0
 10
1189.7278210883239
 20
521.38129495043995
 30
0.0
 11
1190.936314837455
 21
522.84253320719324
 31
0.0
  0
LINE
  5
6C9
  8
0
  6
CENTER
 10
1172.834284864279
 20
522.64050982636377
 30
0.0
 11
1191.834284864279
 21
522.64050982636377
 31
0.0
1001
GENIUS_GENOREF_13
1005
0
  0
LINE
  5
6CA
  8
0
 10
1182.3342848642801
 20
529.14050982636388
 30
0.0
 11
1182.3342848642801
 21
528.14050982636388
 31
0.0
  0
ARC
  5
6CB
  8
0
 10
1194.615960088506
 20
523.04816706103406
 30
0.0
 40
3.8333294017205128
 50
353.89530935526062
 51
88.851772297024866
  0
ARC
  5
6CC
  8
0
 10
1194.4297757971869
 20
523.80832928703239
 30
0.0
 40
2.0821805471591301
 50
35.379611494064328
 51
144.62038850582621
  0
LINE
  5
6CD
  8
0
 10
1198.427551604017
 20
522.64050982636377
 30
0.0
 11
1197.927551604017
 21
522.64050982636377
 31
0.0
  0
ARC
  5
6CE
  8
0
 10
1194.4297757971869
 20
521.47269036569503
 30
0.0
 40
2.0821805471591301
 50
215.3796114941737
 51
324.62038850593558
  0
ARC
  5
6CF
  8
0
 10
1193.004998070543
 20
522.64018915990994
 30
0.0
 40
3.922265353302643
 50
322.7576991034112
 51
37.242300896588773
  0
ARC
  5
6D0
  8
0
 10
1193.067361821971
 20
522.64050982636377
 30
0.0
 40
4.8601897820453601
 50
317.51142276866398
 51
42.488577231335938
  0
ARC
  5
6D2
  8
0
 10
1246.1071071884651
 20
598.8119528046999
 30
0.0
 40
25.00363333333333
 50
160.05302065975141
 51
199.9469793402485
  0
ARC
  5
6D4
  8
0
 10
1184.0998405217979
 20
598.8119528046999
 30
0.0
 40
25.00363333333333
 50
340.05302065975138
 51
19.946979340248561
  0
LINE
  5
6D5
  8
0
 10
1222.6034738551321
 20
589.18195280469979
 30
0.0
 11
1207.6034738551321
 21
589.18195280469979
 31
0.0
  0
LINE
  5
6D6
  8
0
 10
1207.6034738551321
 20
590.28195280469981
 30
0.0
 11
1222.6034738551321
 21
590.28195280469981
 31
0.0
  0
LINE
  5
6D7
  8
0
 10
1209.1034738551321
 20
556.95695280469977
 30
0.0
 11
1221.1034738551321
 21
556.95695280469977
 31
0.0
  0
LINE
  5
6D8
  8
0
 10
1210.007802855132
 20
553.58195280469988
 30
0.0
 11
1220.1991448551321
 21
553.58195280469988
 31
0.0
  0
ARC
  5
6D9
  8
0
  6
DASHED
 10
1209.8534738551321
 20
562.32790318292575
 30
0.0
 40
2.0000000000003242
 50
247.97568716295791
 51
112.024312837042
  0
ARC
  5
6DA
  8
0
 10
1209.8534738551309
 20
562.32790318292575
 30
0.0
 40
2.0
 50
112.0243128370348
 51
247.97568716298579
  0
LINE
  5
6DB
  8
0
 10
1209.1034738551321
 20
556.95695280469977
 30
0.0
 11
1209.1034738551321
 21
589.18195280469979
 31
0.0
  0
LINE
  5
6DC
  8
0
 10
1210.007802855132
 20
553.58195280469988
 30
0.0
 11
1209.1034738551321
 21
556.95695280469977
 31
0.0
  0
LINE
  5
6DD
  8
0
 10
1207.6034738551321
 20
589.18195280469979
 30
0.0
 11
1207.6034738551321
 21
590.28195280469981
 31
0.0
  0
ARC
  5
6DE
  8
0
  6
DASHED
 10
1220.35347385513
 20
562.32790318292723
 30
0.0
 40
2.0000000000003242
 50
67.975687162985764
 51
292.02431283704198
  0
ARC
  5
6DF
  8
0
 10
1220.3534738551321
 20
562.32790318292723
 30
0.0
 40
2.0
 50
292.0243128370347
 51
67.975687162985764
  0
LINE
  5
6E0
  8
0
 10
1221.1034738551321
 20
556.95695280469977
 30
0.0
 11
1221.1034738551321
 21
589.18195280469979
 31
0.0
  0
LINE
  5
6E2
  8
0
 10
1220.1991448551321
 20
553.58195280469988
 30
0.0
 11
1221.1034738551321
 21
556.95695280469977
 31
0.0
  0
LINE
  5
6E3
  8
0
 10
1222.6034738551321
 20
590.28195280469981
 30
0.0
 11
1222.6034738551321
 21
589.18195280469979
 31
0.0
  0
LINE
  5
6E4
  8
0
 10
1215.1034738551321
 20
610.44195280469978
 30
0.0
 11
1209.1034738551321
 21
610.44195280469978
 31
0.0
  0
LINE
  5
6E5
  8
0
 10
1209.1034738551321
 20
609.44195280469989
 30
0.0
 11
1215.1034738551321
 21
609.44195280470012
 31
0.0
  0
LINE
  5
6E6
  8
0
 10
1222.6034738551321
 20
607.34195280469999
 30
0.0
 11
1207.6034738551321
 21
607.34195280469999
 31
0.0
  0
LINE
  5
6E7
  8
0
 10
1211.3534738551321
 20
613.6819528046999
 30
0.0
 11
1218.8534738551321
 21
613.6819528046999
 31
0.0
  0
LINE
  5
6E8
  8
0
 10
1209.8534738551321
 20
612.69195280469978
 30
0.0
 11
1220.3534738551321
 21
612.69195280469978
 31
0.0
  0
LINE
  5
6E9
  8
0
 10
1209.8534738551321
 20
611.82587178298854
 30
0.0
 11
1220.3534738551321
 21
611.82587178298854
 31
0.0
  0
LINE
  5
6EA
  8
0
 10
1209.1034738551321
 20
610.90195280469993
 30
0.0
 11
1221.1034738551321
 21
610.90195280469993
 31
0.0
  0
LINE
  5
6EB
  8
0
 10
1209.6034738551321
 20
610.49195280469974
 30
0.0
 11
1220.6034738551321
 21
610.49195280469974
 31
0.0
  0
LINE
  5
6EC
  8
0
 10
1209.6034738551321
 20
608.44195280469967
 30
0.0
 11
1220.6034738551321
 21
608.44195280469967
 31
0.0
  0
LINE
  5
6ED
  8
0
 10
1211.3534738551321
 20
619.38195280469984
 30
0.0
 11
1218.8534738551321
 21
619.38195280469984
 31
0.0
  0
LINE
  5
6EE
  8
0
 10
1211.8534738551321
 20
619.88195280469984
 30
0.0
 11
1218.3534738551321
 21
619.88195280469984
 31
0.0
  0
LINE
  5
6EF
  8
0
 10
1209.1034738551321
 20
610.49195280469974
 30
0.0
 11
1209.1034738551321
 21
610.90195280469993
 31
0.0
  0
LINE
  5
6F0
  8
0
 10
1209.6034738551321
 20
610.49195280469974
 30
0.0
 11
1209.1034738551321
 21
610.49195280469974
 31
0.0
  0
LINE
  5
6F1
  8
0
 10
1207.6034738551321
 20
607.34195280469999
 30
0.0
 11
1207.6034738551321
 21
608.44195280469967
 31
0.0
  0
LINE
  5
6F2
  8
0
 10
1207.6034738551321
 20
608.44195280469967
 30
0.0
 11
1209.6034738551321
 21
608.44195280469967
 31
0.0
  0
ARC
  5
6F3
  8
0
 10
1209.1034738551321
 20
608.94195280469967
 30
0.0
 40
0.5
 50
90.0
 51
270.0
  0
ARC
  5
6F4
  8
0
 10
1209.1034738551321
 20
609.94195280469989
 30
0.0
 40
0.5
 50
90.0
 51
270.0
  0
LINE
  5
6F5
  8
0
 10
1209.6034738551321
 20
610.44195280469978
 30
0.0
 11
1209.6034738551321
 21
610.49195280469974
 31
0.0
  0
LINE
  5
6F7
  8
0
 10
1211.3534738551321
 20
613.6819528046999
 30
0.0
 11
1211.3534738551321
 21
619.38195280469984
 31
0.0
  0
LINE
  5
6F8
  8
0
 10
1210.7934738551321
 20
613.6819528046999
 30
0.0
 11
1211.3534738551321
 21
613.6819528046999
 31
0.0
  0
LINE
  5
6F9
  8
0
 10
1209.8534738551321
 20
611.82587178298854
 30
0.0
 11
1209.8534738551321
 21
612.69195280469978
 31
0.0
  0
LINE
  5
6FA
  8
0
 10
1209.703473855132
 20
611.82587178298854
 30
0.0
 11
1209.8534738551321
 21
611.82587178298854
 31
0.0
  0
LINE
  5
6FB
  8
0
 10
1209.1034738551321
 20
610.90195280469993
 30
0.0
 11
1209.703473855132
 21
611.82587178298854
 31
0.0
  0
LINE
  5
6FC
  8
0
 10
1209.8534738551321
 20
612.69195280469978
 30
0.0
 11
1210.7934738551321
 21
613.6819528046999
 31
0.0
  0
LINE
  5
6FD
  8
0
 10
1211.3534738551321
 20
619.38195280469984
 30
0.0
 11
1211.8534738551321
 21
619.88195280469984
 31
0.0
  0
LINE
  5
6FE
  8
0
 10
1221.1034738551321
 20
610.90195280469993
 30
0.0
 11
1221.1034738551321
 21
610.49195280469974
 31
0.0
  0
LINE
  5
6FF
  8
0
 10
1220.6034738551321
 20
608.44195280469967
 30
0.0
 11
1222.6034738551321
 21
608.44195280469967
 31
0.0
  0
LINE
  5
700
  8
0
 10
1221.1034738551321
 20
610.49195280469974
 30
0.0
 11
1220.6034738551321
 21
610.49195280469974
 31
0.0
  0
LINE
  5
701
  8
0
 10
1220.6034738551321
 20
610.49195280469974
 30
0.0
 11
1220.6034738551321
 21
610.44195280469978
 31
0.0
  0
ARC
  5
703
  8
0
 10
1221.1034738551321
 20
609.94195280469989
 30
0.0
 40
0.5
 50
270.0
 51
90.0
  0
ARC
  5
704
  8
0
 10
1221.1034738551321
 20
608.94195280469967
 30
0.0
 40
0.5
 50
270.0
 51
90.0
  0
LINE
  5
705
  8
0
 10
1222.6034738551321
 20
608.44195280469967
 30
0.0
 11
1222.6034738551321
 21
607.34195280469999
 31
0.0
  0
LINE
  5
706
  8
0
 10
1215.1034738551321
 20
610.44195280469978
 30
0.0
 11
1221.103473855133
 21
610.44195280469978
 31
0.0
  0
LINE
  5
707
  8
0
 10
1221.103473855133
 20
609.44195280469989
 30
0.0
 11
1215.1034738551321
 21
609.44195280470012
 31
0.0
  0
LINE
  5
708
  8
0
 10
1218.8534738551321
 20
619.38195280469984
 30
0.0
 11
1218.8534738551321
 21
613.6819528046999
 31
0.0
  0
LINE
  5
709
  8
0
 10
1220.3534738551321
 20
612.69195280469978
 30
0.0
 11
1220.3534738551321
 21
611.82587178298854
 31
0.0
  0
LINE
  5
70A
  8
0
 10
1220.3534738551321
 20
611.82587178298854
 30
0.0
 11
1220.503473855131
 21
611.82587178298854
 31
0.0
  0
LINE
  5
70B
  8
0
 10
1220.503473855131
 20
611.82587178298854
 30
0.0
 11
1221.1034738551321
 21
610.90195280469993
 31
0.0
  0
LINE
  5
70C
  8
0
 10
1218.8534738551321
 20
613.6819528046999
 30
0.0
 11
1219.413473855132
 21
613.6819528046999
 31
0.0
  0
LINE
  5
70D
  8
0
 10
1219.413473855132
 20
613.6819528046999
 30
0.0
 11
1220.3534738551321
 21
612.69195280469978
 31
0.0
  0
LINE
  5
70E
  8
0
 10
1218.3534738551321
 20
619.88195280469984
 30
0.0
 11
1218.8534738551321
 21
619.38195280469984
 31
0.0
  0
ARC
  5
710
  8
0
 10
1151.3306515309459
 20
598.8119528046999
 30
0.0
 40
25.00363333333333
 50
340.05302065975138
 51
19.946979340248561
  0
ARC
  5
711
  8
0
 10
1213.337918197614
 20
598.8119528046999
 30
0.0
 40
25.00363333333333
 50
160.05302065975141
 51
199.9469793402485
  0
CIRCLE
  5
712
  8
0
 10
1182.3342848642801
 20
562.32790318292575
 30
0.0
 40
1.8540496217740381
  0
LINE
  5
713
  8
0
 10
1176.3342848642801
 20
556.95695280469977
 30
0.0
 11
1176.3342848642801
 21
589.18195280469979
 31
0.0
  0
LINE
  5
714
  8
0
 10
1188.3342848642801
 20
556.95695280469977
 30
0.0
 11
1188.3342848642801
 21
589.18195280469979
 31
0.0
  0
LINE
  5
716
  8
0
 10
1176.3342848642801
 20
556.95695280469977
 30
0.0
 11
1188.3342848642801
 21
556.95695280469977
 31
0.0
  0
LINE
  5
717
  8
0
 10
1177.2386138642801
 20
553.58195280469988
 30
0.0
 11
1187.4299558642799
 21
553.58195280469988
 31
0.0
  0
LINE
  5
718
  8
0
 10
1177.2386138642801
 20
553.58195280469988
 30
0.0
 11
1176.3342848642801
 21
556.95695280469977
 31
0.0
  0
LINE
  5
719
  8
0
 10
1187.4299558642799
 20
553.58195280469988
 30
0.0
 11
1188.3342848642801
 21
556.95695280469977
 31
0.0
  0
LINE
  5
71A
  8
0
 10
1189.8342848642801
 20
589.18195280469979
 30
0.0
 11
1174.8342848642801
 21
589.18195280469979
 31
0.0
  0
LINE
  5
71B
  8
0
 10
1174.8342848642801
 20
590.28195280469981
 30
0.0
 11
1189.8342848642801
 21
590.28195280469981
 31
0.0
  0
LINE
  5
71C
  8
0
 10
1174.8342848642801
 20
589.18195280469979
 30
0.0
 11
1174.8342848642801
 21
590.28195280469981
 31
0.0
  0
LINE
  5
71D
  8
0
 10
1189.8342848642801
 20
590.28195280469981
 30
0.0
 11
1189.8342848642801
 21
589.18195280469979
 31
0.0
  0
LINE
  5
71E
  8
0
 10
1188.437143557863
 20
610.47544645375376
 30
0.0
 11
1197.3563721919229
 21
615.62496550659182
 31
0.0
  0
LINE
  5
71F
  8
0
 10
1188.763105452186
 20
609.50894010280786
 30
0.0
 11
1191.36118166354
 21
611.00894010280786
 31
0.0
  0
LINE
  5
720
  8
0
 10
1176.3342848642801
 20
610.49195280469974
 30
0.0
 11
1176.3342848642801
 21
610.90195280469993
 31
0.0
  0
LINE
  5
721
  8
0
 10
1188.3342848642801
 20
610.90195280469993
 30
0.0
 11
1188.3342848642801
 21
610.49195280469974
 31
0.0
  0
LINE
  5
722
  8
0
 10
1176.8342848642801
 20
610.49195280469974
 30
0.0
 11
1187.8342848642801
 21
610.49195280469974
 31
0.0
  0
LINE
  5
723
  8
0
 10
1176.8342848642801
 20
608.44195280469967
 30
0.0
 11
1187.8342848642801
 21
608.44195280469967
 31
0.0
  0
LINE
  5
724
  8
0
 10
1189.8342848642801
 20
607.34195280469999
 30
0.0
 11
1174.8342848642801
 21
607.34195280469999
 31
0.0
  0
LINE
  5
725
  8
0
 10
1176.3342848642801
 20
609.44195280469989
 30
0.0
 11
1188.513105452186
 21
609.44195280470012
 31
0.0
  0
LINE
  5
726
  8
0
 10
1188.312143557863
 20
610.44195280469978
 30
0.0
 11
1176.3342848642801
 21
610.44195280469978
 31
0.0
  0
LINE
  5
727
  8
0
 10
1176.8342848642801
 20
610.49195280469974
 30
0.0
 11
1176.3342848642801
 21
610.49195280469974
 31
0.0
  0
LINE
  5
728
  8
0
 10
1174.8342848642801
 20
607.34195280469999
 30
0.0
 11
1174.8342848642801
 21
608.44195280469967
 31
0.0
  0
LINE
  5
729
  8
0
 10
1174.8342848642801
 20
608.44195280469967
 30
0.0
 11
1176.8342848642801
 21
608.44195280469967
 31
0.0
  0
LINE
  5
72B
  8
0
 10
1176.8342848642801
 20
610.44195280469978
 30
0.0
 11
1176.8342848642801
 21
610.49195280469974
 31
0.0
  0
ARC
  5
72C
  8
0
 10
1176.3342848642801
 20
609.94195280469989
 30
0.0
 40
0.5
 50
90.0
 51
270.0
  0
ARC
  5
72D
  8
0
 10
1176.3342848642801
 20
608.94195280469967
 30
0.0
 40
0.5
 50
90.0
 51
270.0
  0
ARC
  5
72E
  8
0
 10
1188.513105452186
 20
609.94195280470001
 30
0.0
 40
0.5
 50
270.0
 51
300.00000000000051
1001
GENIUS_GENOBJ-N-FIL_13
1002
{
1000
OWNER
1000
GEN
1002
}
1001
GENIUS_GENODEF_13
1002
{
1000
HIER
1070
     0
1002
}
1002
{
1000
MANEDIT
1070
     0
1002
}
1002
{
1000
NOSEL
1070
     0
1002
}
1002
{
1000
BEHIND
1070
     0
1002
}
1002
{
1000
OTHER
1070
     0
1002
}
1002
{
1000
REACTOR
1002
}
  0
ARC
  5
72F
  8
0
 10
1188.312143557863
 20
610.69195280469967
 30
0.0
 40
0.25
 50
270.0
 51
300.00000000000051
1001
GENIUS_GENOBJ-N-FIL_13
1002
{
1000
OWNER
1000
GEN
1002
}
1001
GENIUS_GENODEF_13
1002
{
1000
HIER
1070
     0
1002
}
1002
{
1000
MANEDIT
1070
     0
1002
}
1002
{
1000
NOSEL
1070
     0
1002
}
1002
{
1000
BEHIND
1070
     0
1002
}
1002
{
1000
OTHER
1070
     0
1002
}
1002
{
1000
REACTOR
1002
}
  0
LINE
  5
730
  8
0
 10
1188.3342848642801
 20
610.49195280469974
 30
0.0
 11
1187.8342848642801
 21
610.49195280469974
 31
0.0
  0
LINE
  5
731
  8
0
 10
1189.8342848642801
 20
608.44195280469967
 30
0.0
 11
1189.8342848642801
 21
607.34195280469999
 31
0.0
  0
LINE
  5
732
  8
0
 10
1187.8342848642801
 20
608.44195280469967
 30
0.0
 11
1189.8342848642801
 21
608.44195280469967
 31
0.0
  0
ARC
  5
733
  8
0
 10
1188.3342848642801
 20
608.94195280469967
 30
0.0
 40
0.5
 50
270.0
 51
90.0
  0
LINE
  5
735
  8
0
 10
1187.8342848642801
 20
610.49195280469974
 30
0.0
 11
1187.8342848642801
 21
610.44195280469978
 31
0.0
  0
LINE
  5
736
  8
0
 10
1178.5842848642801
 20
613.6819528046999
 30
0.0
 11
1186.0842848642801
 21
613.6819528046999
 31
0.0
  0
LINE
  5
737
  8
0
 10
1177.0842848642801
 20
612.69195280469978
 30
0.0
 11
1187.5842848642801
 21
612.69195280469978
 31
0.0
  0
LINE
  5
738
  8
0
 10
1177.0842848642801
 20
611.82587178298854
 30
0.0
 11
1187.5842848642801
 21
611.82587178298854
 31
0.0
  0
LINE
  5
739
  8
0
 10
1176.3342848642801
 20
610.90195280469993
 30
0.0
 11
1188.3342848642801
 21
610.90195280469993
 31
0.0
  0
LINE
  5
73A
  8
0
 10
1178.5842848642801
 20
619.38195280469984
 30
0.0
 11
1186.0842848642801
 21
619.38195280469984
 31
0.0
  0
LINE
  5
73B
  8
0
 10
1179.0842848642801
 20
619.88195280469984
 30
0.0
 11
1185.5842848642801
 21
619.88195280469984
 31
0.0
  0
LINE
  5
73C
  8
0
 10
1178.5842848642801
 20
613.6819528046999
 30
0.0
 11
1178.5842848642801
 21
619.38195280469984
 31
0.0
  0
LINE
  5
73D
  8
0
 10
1178.0242848642811
 20
613.6819528046999
 30
0.0
 11
1178.5842848642801
 21
613.6819528046999
 31
0.0
  0
LINE
  5
73E
  8
0
 10
1177.0842848642801
 20
611.82587178298854
 30
0.0
 11
1177.0842848642801
 21
612.69195280469978
 31
0.0
  0
LINE
  5
73F
  8
0
 10
1176.93428486428
 20
611.82587178298854
 30
0.0
 11
1177.0842848642801
 21
611.82587178298854
 31
0.0
  0
LINE
  5
740
  8
0
 10
1176.3342848642801
 20
610.90195280469993
 30
0.0
 11
1176.93428486428
 21
611.82587178298854
 31
0.0
  0
LINE
  5
741
  8
0
 10
1177.0842848642801
 20
612.69195280469978
 30
0.0
 11
1178.0242848642811
 21
613.6819528046999
 31
0.0
  0
LINE
  5
742
  8
0
 10
1178.5842848642801
 20
619.38195280469984
 30
0.0
 11
1179.0842848642801
 21
619.88195280469984
 31
0.0
  0
LINE
  5
743
  8
0
 10
1186.0842848642801
 20
619.38195280469984
 30
0.0
 11
1186.0842848642801
 21
613.6819528046999
 31
0.0
  0
LINE
  5
744
  8
0
 10
1187.5842848642801
 20
612.69195280469978
 30
0.0
 11
1187.5842848642801
 21
611.82587178298854
 31
0.0
  0
LINE
  5
745
  8
0
 10
1187.5842848642801
 20
611.82587178298854
 30
0.0
 11
1187.73428486428
 21
611.82587178298854
 31
0.0
  0
LINE
  5
746
  8
0
 10
1187.73428486428
 20
611.82587178298854
 30
0.0
 11
1188.3342848642801
 21
610.90195280469993
 31
0.0
  0
LINE
  5
747
  8
0
 10
1186.0842848642801
 20
613.6819528046999
 30
0.0
 11
1186.6442848642801
 21
613.6819528046999
 31
0.0
  0
LINE
  5
748
  8
0
 10
1186.6442848642801
 20
613.6819528046999
 30
0.0
 11
1187.5842848642801
 21
612.69195280469978
 31
0.0
  0
LINE
  5
749
  8
0
 10
1185.5842848642801
 20
619.88195280469984
 30
0.0
 11
1186.0842848642801
 21
619.38195280469984
 31
0.0
  0
LINE
  5
74A
  8
0
  6
CENTER
 10
1196.6087769277319
 20
609.41983848766972
 30
0.0
 11
1192.6087769277319
 21
616.34804171794553
 31
0.0
1001
GENIUS_GENOBJ-N-CEN_13
1002
{
1000
OWNER
1000
GEN
1002
}
1001
GENIUS_GENODEF_13
1002
{
1000
HIER
1070
     0
1002
}
1002
{
1000
MANEDIT
1070
     0
1002
}
1002
{
1000
NOSEL
1070
     0
1002
}
1002
{
1000
BEHIND
1070
     0
1002
}
1002
{
1000
OTHER
1070
     0
1002
}
1002
{
1000
REACTOR
1002
}
  0
LINE
  5
74B
  8
0
 10
1197.911407736623
 20
614.79577946325719
 30
0.0
 11
1191.9162172082399
 21
610.17975405947266
 31
0.0
  0
LINE
  5
74C
  8
0
 10
1198.3563721919229
 20
613.89291469902332
 30
0.0
 11
1191.8611816635409
 21
610.14291469902332
 31
0.0
  0
ARC
  5
74D
  8
0
 10
1191.61118166354
 20
610.57592740091525
 30
0.0
 40
0.499999999999992
 50
119.99999999999891
 51
307.59464336859332
  0
LINE
  5
74E
  8
0
 10
1197.3013366472239
 20
615.58812614614237
 30
0.0
 11
1191.3061461188411
 21
610.97210074235829
 31
0.0
  0
CIRCLE
  5
74F
  8
0
 10
1198.1063721919229
 20
614.32592740091525
 30
0.0
 40
0.499999999999992
  0
ARC
  5
750
  8
0
 10
1197.6063721919229
 20
615.19195280469967
 30
0.0
 40
0.5000000000000308
 50
300.00000000000051
 51
127.5946433685933
  0
LINE
  5
754
  8
0
  6
CENTER
 10
1182.3342848642801
 20
621.88195280469984
 30
0.0
 11
1182.3342848642801
 21
551.58195280469977
 31
0.0
  0
LINE
  5
755
  8
0
  6
CENTER
 10
1215.1034738551321
 20
621.88195280469984
 30
0.0
 11
1215.1034738551321
 21
551.58195280469977
 31
0.0
  0
ARC
  5
AE6
  8
0
 10
1026.7788514957299
 20
540.09385286998065
 30
0.0
 40
6.5
 50
352.6133027781031
 51
172.6133027781031
  0
CIRCLE
  5
AE7
  8
0
 10
1026.7788514957299
 20
540.09385286998065
 30
0.0
 40
4.25
  0
CIRCLE
  5
AE9
  8
0
 10
1026.7788514957299
 20
540.09385286998065
 30
0.0
 40
6.0
  0
CIRCLE
  5
AEA
  8
0
 10
1026.7788514957299
 20
540.09385286998065
 30
0.0
 40
5.2300000000000173
  0
ARC
  5
AEB
  8
0
 10
1026.7788514957299
 20
540.09385286998065
 30
0.0
 40
6.5
 50
172.6133027781031
 51
320.41037887868538
  0
ARC
  5
AED
  8
0
 10
1037.511928453421
 20
540.09385286998099
 30
0.0
 40
4.8601897820453601
 50
317.51142276866398
 51
42.488577231335938
  0
ARC
  5
AEE
  8
0
 10
1037.449564701993
 20
540.09353220352682
 30
0.0
 40
3.922265353302643
 50
322.7576991034108
 51
37.242300896589079
  0
LINE
  5
AEF
  8
0
 10
1032.545425939534
 20
538.43656014264718
 30
0.0
 11
1036.407415076259
 21
543.106408892638
 31
0.0
  0
CIRCLE
  5
AF0
  8
0
 10
1026.7788514957299
 20
540.09385286998065
 30
0.0
 40
2.3999999999996362
  0
CIRCLE
  5
AF1
  8
0
 10
1026.7788514957299
 20
540.09385286998065
 30
0.0
 40
2.8999999999996362
  0
CIRCLE
  5
AF2
  8
0
 10
1026.7788514957299
 20
540.09385286998065
 30
0.0
 40
3.4349999999999441
  0
LINE
  5
AF3
  8
0
 10
1031.787607649946
 20
535.95110477389596
 30
0.0
 11
1035.380881468905
 21
540.29587625081012
 31
0.0
  0
ARC
  5
AF4
  8
0
 10
1040.2371174891291
 20
540.09385286998099
 30
0.0
 40
4.8601897820453601
 50
177.6139937555933
 51
222.48857723133591
  0
ARC
  5
AF5
  8
0
 10
1040.2994812405559
 20
540.09353220352682
 30
0.0
 40
3.922265353302643
 50
142.75769910341091
 51
217.24230089658909
  0
LINE
  5
AF6
  8
0
  6
CENTER
 10
1026.7788514957299
 20
548.59385286998065
 30
0.0
 11
1026.7788514957299
 21
531.59385286998065
 31
0.0
1001
GENIUS_GENOREF_13
1005
0
  0
ARC
  5
AF8
  8
0
 10
1038.874342428637
 20
538.92603340931214
 30
0.0
 40
2.0821805471591301
 50
215.3796114941737
 51
324.62038850593598
  0
ARC
  5
AF9
  8
0
 10
1038.8745229712749
 20
538.86845149087094
 30
0.0
 40
3.0277533998419082
 50
222.8051603149506
 51
317.19483968504932
  0
LINE
  5
AFA
  8
0
  6
CENTER
 10
1018.27885149573
 20
540.09385286998099
 30
0.0
 11
1035.2788514957299
 21
540.09385286998065
 31
0.0
1001
GENIUS_GENOREF_13
1005
0
  0
ARC
  5
AFD
  8
0
 10
1039.060526719956
 20
540.50151010465129
 30
0.0
 40
3.8333294017205128
 50
353.89530935526079
 51
88.851772297024866
  0
LINE
  5
AFE
  8
0
 10
1042.872118235467
 20
540.09385286998065
 30
0.0
 11
1042.372118235467
 21
540.09385286998065
 31
0.0
  0
ARC
  5
AFF
  8
0
 10
1038.874342428637
 20
541.26167233064928
 30
0.0
 40
2.0821805471591301
 50
35.379611494063951
 51
144.62038850582621
  0
LINE
  5
B00
  8
0
 10
1035.380881468905
 20
540.29587625081012
 30
0.0
 11
1037.1766700856649
 21
542.46723628452082
 31
0.0
  0
ARC
  5
B01
  8
0
 10
1038.8639641469281
 20
541.29290066965882
 30
0.0
 40
3.0534317433692411
 50
43.03333581483335
 51
143.56399290506729
  0
ARC
  5
B03
  8
0
 10
1055.77436399573
 20
596.75695280469972
 30
0.0
 40
23.9955125
 50
163.40059497466601
 51
196.59940502533371
  0
ARC
  5
B04
  8
0
 10
997.7833389957309
 20
596.75695280469972
 30
0.0
 40
23.9955125
 50
343.40059497466621
 51
16.59940502533377
  0
LINE
  5
B06
  8
0
 10
1022.77885149573
 20
563.96188880470004
 30
0.0
 11
1022.77885149573
 21
589.18195280469979
 31
0.0
  0
LINE
  5
B07
  8
0
 10
1030.7788514957299
 20
563.96188880470004
 30
0.0
 11
1030.7788514957299
 21
589.18195280469979
 31
0.0
  0
LINE
  5
B0A
  8
0
 10
1030.7788514957299
 20
563.96188880470004
 30
0.0
 11
1022.77885149573
 21
563.96188880470004
 31
0.0
  0
LINE
  5
B0C
  8
0
 10
1029.9803794957311
 20
560.98195280469974
 30
0.0
 11
1023.577323495731
 21
560.98195280469974
 31
0.0
  0
LINE
  5
B0D
  8
0
 10
1023.577323495731
 20
560.98195280469974
 30
0.0
 11
1022.77885149573
 21
563.96188880470004
 31
0.0
  0
LINE
  5
B0E
  8
0
 10
1029.9803794957311
 20
560.98195280469974
 30
0.0
 11
1030.7788514957299
 21
563.96188880470004
 31
0.0
  0
CIRCLE
  5
B0F
  8
0
 10
1026.7788514957299
 20
567.8829146990231
 30
0.0
 40
1.299038105676799
  0
LINE
  5
B10
  8
0
 10
1032.7788514957299
 20
589.18195280469979
 30
0.0
 11
1020.77885149573
 21
589.18195280469979
 31
0.0
  0
LINE
  5
B11
  8
0
 10
1020.77885149573
 20
589.90195280469982
 30
0.0
 11
1032.7788514957299
 21
589.90195280469982
 31
0.0
  0
LINE
  5
B12
  8
0
 10
1020.77885149573
 20
589.18195280469979
 30
0.0
 11
1020.77885149573
 21
589.90195280469982
 31
0.0
  0
LINE
  5
B13
  8
0
 10
1032.7788514957299
 20
589.90195280469982
 30
0.0
 11
1032.7788514957299
 21
589.18195280469979
 31
0.0
  0
ARC
  5
B14
  8
0
 10
1032.957672083636
 20
605.83195280470022
 30
0.0
 40
0.5
 50
270.0
 51
299.99999999999898
1001
GENIUS_GENOBJ-N-FIL_13
1002
{
1000
OWNER
1000
GEN
1002
}
1001
GENIUS_GENODEF_13
1002
{
1000
HIER
1070
     0
1002
}
1002
{
1000
MANEDIT
1070
     0
1002
}
1002
{
1000
NOSEL
1070
     0
1002
}
1002
{
1000
BEHIND
1070
     0
1002
}
1002
{
1000
OTHER
1070
     0
1002
}
1002
{
1000
REACTOR
1002
}
  0
ARC
  5
B15
  8
0
 10
1032.7788514957299
 20
604.83195280469999
 30
0.0
 40
0.5
 50
270.0
 51
90.0
  0
LINE
  5
B16
  8
0
 10
1032.881710189313
 20
606.36544645375386
 30
0.0
 11
1041.8009388233729
 21
611.51496550659203
 31
0.0
  0
ARC
  5
B19
  8
0
 10
1020.77885149573
 20
605.83195280469988
 30
0.0
 40
0.5
 50
90.0
 51
270.0
  0
LINE
  5
B1A
  8
0
 10
1021.27885149573
 20
604.33195280469999
 30
0.0
 11
1032.2788514957299
 21
604.33195280469999
 31
0.0
  0
LINE
  5
B1B
  8
0
 10
1032.7788514957299
 20
603.61195280469997
 30
0.0
 11
1020.77885149573
 21
603.61195280469997
 31
0.0
  0
LINE
  5
B1C
  8
0
 10
1020.778851495729
 20
605.33195280469999
 30
0.0
 11
1032.957672083636
 21
605.33195280470022
 31
0.0
  0
LINE
  5
B1D
  8
0
 10
1020.77885149573
 20
603.61195280469997
 30
0.0
 11
1020.77885149573
 21
604.33195280469999
 31
0.0
  0
LINE
  5
B1E
  8
0
 10
1020.77885149573
 20
604.33195280469999
 30
0.0
 11
1021.27885149573
 21
604.33195280469999
 31
0.0
  0
ARC
  5
B1F
  8
0
 10
1020.77885149573
 20
604.83195280469999
 30
0.0
 40
0.5
 50
90.0
 51
270.0
  0
LINE
  5
B20
  8
0
 10
1032.7788514957299
 20
604.33195280469999
 30
0.0
 11
1032.7788514957299
 21
603.61195280469997
 31
0.0
  0
LINE
  5
B21
  8
0
 10
1032.2788514957299
 20
604.33195280469999
 30
0.0
 11
1032.7788514957299
 21
604.33195280469999
 31
0.0
  0
LINE
  5
B22
  8
0
 10
1021.54885149573
 20
607.97764882683714
 30
0.0
 11
1022.52885149573
 21
607.97764882683714
 31
0.0
  0
LINE
  5
B23
  8
0
 10
1020.77885149573
 20
606.79195280470003
 30
0.0
 11
1032.7788514957299
 21
606.79195280470003
 31
0.0
  0
LINE
  5
B24
  8
0
 10
1021.27885149573
 20
606.38195280469972
 30
0.0
 11
1032.2788514957299
 21
606.38195280469972
 31
0.0
  0
LINE
  5
B25
  8
0
 10
1032.756710189313
 20
606.33195280469988
 30
0.0
 11
1020.778851495729
 21
606.33195280469988
 31
0.0
  0
LINE
  5
B26
  8
0
 10
1020.77885149573
 20
606.38195280469972
 30
0.0
 11
1020.77885149573
 21
606.79195280470003
 31
0.0
  0
LINE
  5
B27
  8
0
 10
1020.77885149573
 20
606.79195280470003
 30
0.0
 11
1021.54885149573
 21
607.97764882683714
 31
0.0
  0
LINE
  5
B28
  8
0
 10
1021.27885149573
 20
606.38195280469972
 30
0.0
 11
1020.77885149573
 21
606.38195280469972
 31
0.0
  0
LINE
  5
B29
  8
0
 10
1021.27885149573
 20
606.33195280469988
 30
0.0
 11
1021.27885149573
 21
606.38195280469972
 31
0.0
  0
ARC
  5
B2A
  8
0
 10
1032.756710189313
 20
606.58195280469999
 30
0.0
 40
0.25
 50
270.0
 51
299.99999999999898
1001
GENIUS_GENOBJ-N-FIL_13
1002
{
1000
OWNER
1000
GEN
1002
}
1001
GENIUS_GENODEF_13
1002
{
1000
HIER
1070
     0
1002
}
1002
{
1000
MANEDIT
1070
     0
1002
}
1002
{
1000
NOSEL
1070
     0
1002
}
1002
{
1000
BEHIND
1070
     0
1002
}
1002
{
1000
OTHER
1070
     0
1002
}
1002
{
1000
REACTOR
1002
}
  0
LINE
  5
B2B
  8
0
 10
1031.0288514957299
 20
608.59195280469999
 30
0.0
 11
1031.0288514957299
 21
607.97764882683714
 31
0.0
  0
LINE
  5
B2C
  8
0
 10
1022.52885149573
 20
607.97764882683714
 30
0.0
 11
1022.52885149573
 21
608.59195280469999
 31
0.0
  0
LINE
  5
B2D
  8
0
 10
1032.7788514957299
 20
606.79195280470003
 30
0.0
 11
1032.7788514957299
 21
606.38195280469972
 31
0.0
  0
LINE
  5
B2E
  8
0
 10
1031.0288514957299
 20
607.97764882683714
 30
0.0
 11
1032.0088514957299
 21
607.97764882683714
 31
0.0
  0
LINE
  5
B2F
  8
0
 10
1032.7788514957299
 20
606.38195280469972
 30
0.0
 11
1032.2788514957299
 21
606.38195280469972
 31
0.0
  0
LINE
  5
B30
  8
0
 10
1032.0088514957299
 20
607.97764882683714
 30
0.0
 11
1032.7788514957299
 21
606.79195280470003
 31
0.0
  0
LINE
  5
B31
  8
0
 10
1022.52885149573
 20
607.97764882683714
 30
0.0
 11
1031.0288514957299
 21
607.97764882683714
 31
0.0
  0
LINE
  5
B32
  8
0
 10
1032.2788514957299
 20
606.38195280469972
 30
0.0
 11
1032.2788514957299
 21
606.33195280469988
 31
0.0
  0
LINE
  5
B33
  8
0
 10
1029.17885149573
 20
615.05195280469991
 30
0.0
 11
1029.67885149573
 21
614.55195280470002
 31
0.0
  0
LINE
  5
B34
  8
0
 10
1023.87885149573
 20
614.55195280470002
 30
0.0
 11
1024.37885149573
 21
615.05195280469991
 31
0.0
  0
LINE
  5
B35
  8
0
 10
1023.87885149573
 20
614.55195280470002
 30
0.0
 11
1029.67885149573
 21
614.55195280470002
 31
0.0
  0
LINE
  5
B36
  8
0
 10
1024.37885149573
 20
615.05195280469991
 30
0.0
 11
1029.17885149573
 21
615.05195280469991
 31
0.0
  0
LINE
  5
B37
  8
0
 10
1029.67885149573
 20
609.1819528046999
 30
0.0
 11
1030.2138514957301
 21
609.1819528046999
 31
0.0
  0
LINE
  5
B38
  8
0
 10
1030.2138514957301
 20
609.1819528046999
 30
0.0
 11
1031.0288514957299
 21
608.59195280469999
 31
0.0
  0
LINE
  5
B39
  8
0
 10
1023.34385149573
 20
609.1819528046999
 30
0.0
 11
1023.87885149573
 21
609.1819528046999
 31
0.0
  0
LINE
  5
B3A
  8
0
 10
1022.52885149573
 20
608.59195280469999
 30
0.0
 11
1023.34385149573
 21
609.1819528046999
 31
0.0
  0
LINE
  5
B3B
  8
0
 10
1023.87885149573
 20
609.1819528046999
 30
0.0
 11
1029.67885149573
 21
609.1819528046999
 31
0.0
  0
LINE
  5
B3C
  8
0
 10
1022.52885149573
 20
608.59195280469999
 30
0.0
 11
1031.0288514957299
 21
608.59195280469999
 31
0.0
  0
LINE
  5
B3D
  8
0
 10
1029.67885149573
 20
614.55195280470002
 30
0.0
 11
1029.67885149573
 21
609.1819528046999
 31
0.0
  0
LINE
  5
B3E
  8
0
 10
1023.87885149573
 20
609.1819528046999
 30
0.0
 11
1023.87885149573
 21
614.55195280470002
 31
0.0
  0
LINE
  5
B3F
  8
0
  6
CENTER
 10
1041.053343559181
 20
605.30983848766971
 30
0.0
 11
1037.053343559181
 21
612.23804171794541
 31
0.0
1001
GENIUS_GENOBJ-N-CEN_13
1002
{
1000
OWNER
1000
GEN
1002
}
1001
GENIUS_GENODEF_13
1002
{
1000
HIER
1070
     0
1002
}
1002
{
1000
MANEDIT
1070
     0
1002
}
1002
{
1000
NOSEL
1070
     0
1002
}
1002
{
1000
BEHIND
1070
     0
1002
}
1002
{
1000
OTHER
1070
     0
1002
}
1002
{
1000
REACTOR
1002
}
  0
LINE
  5
B40
  8
0
 10
1033.207672083636
 20
605.39894010280796
 30
0.0
 11
1035.8057482949901
 21
606.89894010280796
 31
0.0
  0
LINE
  5
B41
  8
0
 10
1042.8009388233729
 20
609.78291469902342
 30
0.0
 11
1036.3057482949901
 21
606.03291469902342
 31
0.0
  0
LINE
  5
B42
  8
0
 10
1042.355974368073
 20
610.6857794632574
 30
0.0
 11
1036.360783839689
 21
606.06975405947287
 31
0.0
  0
CIRCLE
  5
B43
  8
0
 10
1042.5509388233729
 20
610.21592740091535
 30
0.0
 40
0.499999999999992
  0
ARC
  5
B44
  8
0
 10
1042.0509388233729
 20
611.08195280469999
 30
0.0
 40
0.5000000000000308
 50
299.99999999999898
 51
127.594643368593
  0
LINE
  5
B45
  8
0
 10
1041.7459032786739
 20
611.47812614614247
 30
0.0
 11
1035.7507127502911
 21
606.86210074235851
 31
0.0
  0
ARC
  5
B46
  8
0
 10
1036.0557482949901
 20
606.46592740091535
 30
0.0
 40
0.499999999999992
 50
119.99999999999901
 51
307.5946433685931
  0
LINE
  5
B47
  8
0
 10
1057.127352955881
 20
606.33195280469988
 30
0.0
 11
1051.127352955881
 21
606.33195280469988
 31
0.0
  0
LINE
  5
B48
  8
0
 10
1053.692352955881
 20
609.1819528046999
 30
0.0
 11
1054.2273529558811
 21
609.1819528046999
 31
0.0
  0
LINE
  5
B49
  8
0
 10
1051.627352955881
 20
606.38195280469972
 30
0.0
 11
1062.627352955881
 21
606.38195280469972
 31
0.0
  0
LINE
  5
B4A
  8
0
 10
1051.127352955881
 20
606.79195280470003
 30
0.0
 11
1063.127352955881
 21
606.79195280470003
 31
0.0
  0
LINE
  5
B4B
  8
0
 10
1052.877352955881
 20
607.97764882683714
 30
0.0
 11
1061.377352955881
 21
607.97764882683714
 31
0.0
  0
LINE
  5
B4C
  8
0
 10
1052.877352955881
 20
608.59195280469999
 30
0.0
 11
1061.377352955881
 21
608.59195280469999
 31
0.0
  0
LINE
  5
B4D
  8
0
 10
1051.127352955881
 20
605.33195280469999
 30
0.0
 11
1057.127352955881
 21
605.33195280470022
 31
0.0
  0
LINE
  5
B4E
  8
0
 10
1051.127352955881
 20
589.90195280469982
 30
0.0
 11
1063.127352955881
 21
589.90195280469982
 31
0.0
  0
LINE
  5
B4F
  8
0
 10
1063.127352955881
 20
589.18195280469979
 30
0.0
 11
1051.127352955881
 21
589.18195280469979
 31
0.0
  0
LINE
  5
B50
  8
0
 10
1063.127352955881
 20
603.61195280469997
 30
0.0
 11
1051.127352955881
 21
603.61195280469997
 31
0.0
  0
LINE
  5
B51
  8
0
 10
1051.627352955881
 20
604.33195280469999
 30
0.0
 11
1062.627352955881
 21
604.33195280469999
 31
0.0
  0
LINE
  5
B52
  8
0
 10
1053.127352955881
 20
563.96188880470004
 30
0.0
 11
1061.127352955881
 21
563.96188880470004
 31
0.0
  0
ARC
  5
B54
  8
0
  6
DASHED
 10
1053.877352955881
 20
567.8829146990231
 30
0.0
 40
1.500000000000123
 50
240.0000000000002
 51
119.99999999999829
  0
ARC
  5
B55
  8
0
 10
1028.131840455881
 20
596.75695280469972
 30
0.0
 40
23.9955125
 50
343.40059497466638
 51
16.599405025333539
  0
LINE
  5
B56
  8
0
 10
1053.127352955881
 20
563.96188880470004
 30
0.0
 11
1053.127352955881
 21
589.18195280469979
 31
0.0
  0
LINE
  5
B57
  8
0
 10
1053.9258249558809
 20
560.98195280469974
 30
0.0
 11
1053.127352955881
 21
563.96188880470004
 31
0.0
  0
ARC
  5
B58
  8
0
 10
1053.877352955881
 20
567.88291469902288
 30
0.0
 40
1.5
 50
119.99999999999829
 51
240.0000000000002
  0
LINE
  5
B59
  8
0
 10
1051.127352955881
 20
589.18195280469979
 30
0.0
 11
1051.127352955881
 21
589.90195280469982
 31
0.0
  0
ARC
  5
B5A
  8
0
 10
1051.127352955881
 20
605.83195280469988
 30
0.0
 40
0.5
 50
90.0
 51
270.0
  0
ARC
  5
B5C
  8
0
 10
1051.127352955881
 20
604.83195280469999
 30
0.0
 40
0.5
 50
90.0
 51
270.0
  0
LINE
  5
B5D
  8
0
 10
1051.127352955881
 20
604.33195280469999
 30
0.0
 11
1051.627352955881
 21
604.33195280469999
 31
0.0
  0
LINE
  5
B5E
  8
0
 10
1051.127352955881
 20
603.61195280469997
 30
0.0
 11
1051.127352955881
 21
604.33195280469999
 31
0.0
  0
LINE
  5
B5F
  8
0
 10
1052.877352955881
 20
607.97764882683714
 30
0.0
 11
1052.877352955881
 21
608.59195280469999
 31
0.0
  0
LINE
  5
B60
  8
0
 10
1051.627352955881
 20
606.33195280469988
 30
0.0
 11
1051.627352955881
 21
606.38195280469972
 31
0.0
  0
LINE
  5
B61
  8
0
 10
1051.627352955881
 20
606.38195280469972
 30
0.0
 11
1051.127352955881
 21
606.38195280469972
 31
0.0
  0
LINE
  5
B62
  8
0
 10
1051.127352955881
 20
606.79195280470003
 30
0.0
 11
1051.8973529558809
 21
607.97764882683714
 31
0.0
  0
LINE
  5
B63
  8
0
 10
1051.127352955881
 20
606.38195280469972
 30
0.0
 11
1051.127352955881
 21
606.79195280470003
 31
0.0
  0
LINE
  5
B64
  8
0
 10
1051.8973529558809
 20
607.97764882683714
 30
0.0
 11
1052.877352955881
 21
607.97764882683714
 31
0.0
  0
LINE
  5
B65
  8
0
 10
1052.877352955881
 20
608.59195280469999
 30
0.0
 11
1053.692352955881
 21
609.1819528046999
 31
0.0
  0
ARC
  5
B66
  8
0
 10
1086.1228654558811
 20
596.75695280469972
 30
0.0
 40
23.9955125
 50
163.4005949746664
 51
196.59940502533351
  0
LINE
  5
B69
  8
0
 10
1061.127352955881
 20
563.96188880470004
 30
0.0
 11
1061.127352955881
 21
589.18195280469979
 31
0.0
  0
LINE
  5
B6B
  8
0
 10
1060.328880955881
 20
560.98195280469974
 30
0.0
 11
1061.127352955881
 21
563.96188880470004
 31
0.0
  0
LINE
  5
B6C
  8
0
 10
1060.328880955881
 20
560.98195280469974
 30
0.0
 11
1053.9258249558809
 21
560.98195280469974
 31
0.0
  0
ARC
  5
B6D
  8
0
  6
DASHED
 10
1060.377352955881
 20
567.8829146990231
 30
0.0
 40
1.500000000000123
 50
60.000000000001691
 51
299.99999999999829
  0
ARC
  5
B6E
  8
0
 10
1060.377352955881
 20
567.88291469902288
 30
0.0
 40
1.5
 50
299.99999999999829
 51
60.000000000001691
  0
LINE
  5
B6F
  8
0
 10
1063.127352955881
 20
589.90195280469982
 30
0.0
 11
1063.127352955881
 21
589.18195280469979
 31
0.0
  0
ARC
  5
B71
  8
0
 10
1063.127352955881
 20
605.83195280469988
 30
0.0
 40
0.5
 50
270.0
 51
90.0
  0
LINE
  5
B72
  8
0
 10
1062.627352955881
 20
604.33195280469999
 30
0.0
 11
1063.127352955881
 21
604.33195280469999
 31
0.0
  0
LINE
  5
B73
  8
0
 10
1063.127352955881
 20
604.33195280469999
 30
0.0
 11
1063.127352955881
 21
603.61195280469997
 31
0.0
  0
ARC
  5
B74
  8
0
 10
1063.127352955881
 20
604.83195280469999
 30
0.0
 40
0.5
 50
270.0
 51
90.0
  0
LINE
  5
B75
  8
0
 10
1063.1273529558821
 20
605.33195280469999
 30
0.0
 11
1057.127352955881
 21
605.33195280470022
 31
0.0
  0
LINE
  5
B76
  8
0
 10
1061.377352955881
 20
608.59195280469999
 30
0.0
 11
1061.377352955881
 21
607.97764882683714
 31
0.0
  0
LINE
  5
B77
  8
0
 10
1062.627352955881
 20
606.38195280469972
 30
0.0
 11
1062.627352955881
 21
606.33195280469988
 31
0.0
  0
LINE
  5
B78
  8
0
 10
1062.357352955881
 20
607.97764882683714
 30
0.0
 11
1063.127352955881
 21
606.79195280470003
 31
0.0
  0
LINE
  5
B79
  8
0
 10
1063.127352955881
 20
606.38195280469972
 30
0.0
 11
1062.627352955881
 21
606.38195280469972
 31
0.0
  0
LINE
  5
B7A
  8
0
 10
1061.377352955881
 20
607.97764882683714
 30
0.0
 11
1062.357352955881
 21
607.97764882683714
 31
0.0
  0
LINE
  5
B7B
  8
0
 10
1063.127352955881
 20
606.79195280470003
 30
0.0
 11
1063.127352955881
 21
606.38195280469972
 31
0.0
  0
LINE
  5
B7C
  8
0
 10
1054.2273529558811
 20
609.1819528046999
 30
0.0
 11
1054.2273529558811
 21
614.55195280470002
 31
0.0
  0
LINE
  5
B7D
  8
0
 10
1060.027352955881
 20
614.55195280470002
 30
0.0
 11
1060.027352955881
 21
609.1819528046999
 31
0.0
  0
LINE
  5
B7E
  8
0
 10
1054.2273529558811
 20
609.1819528046999
 30
0.0
 11
1060.027352955881
 21
609.1819528046999
 31
0.0
  0
LINE
  5
B7F
  8
0
 10
1060.027352955881
 20
609.1819528046999
 30
0.0
 11
1060.5623529558809
 21
609.1819528046999
 31
0.0
  0
LINE
  5
B80
  8
0
 10
1054.7273529558811
 20
615.05195280469991
 30
0.0
 11
1059.527352955881
 21
615.05195280469991
 31
0.0
  0
LINE
  5
B81
  8
0
 10
1054.2273529558811
 20
614.55195280470002
 30
0.0
 11
1060.027352955881
 21
614.55195280470002
 31
0.0
  0
LINE
  5
B82
  8
0
 10
1054.2273529558811
 20
614.55195280470002
 30
0.0
 11
1054.7273529558811
 21
615.05195280469991
 31
0.0
  0
LINE
  5
B83
  8
0
 10
1059.527352955881
 20
615.05195280469991
 30
0.0
 11
1060.027352955881
 21
614.55195280470002
 31
0.0
  0
LINE
  5
B84
  8
0
 10
1060.5623529558809
 20
609.1819528046999
 30
0.0
 11
1061.377352955881
 21
608.59195280469999
 31
0.0
  0
LINE
  5
B85
  8
0
 10
1057.127352955881
 20
606.33195280469988
 30
0.0
 11
1063.1273529558821
 21
606.33195280469988
 31
0.0
  0
LINE
  5
C3B
  8
0
  6
CENTER
 10
1057.127352955881
 20
617.05195280470002
 30
0.0
 11
1057.127352955881
 21
558.98195280469974
 31
0.0
  0
LINE
  5
C3C
  8
0
  6
CENTER
 10
1026.778851495731
 20
617.05195280470002
 30
0.0
 11
1026.778851495731
 21
558.98195280469974
 31
0.0
  0
LINE
  5
DDC
  8
0
 10
982.62896563103789
 20
611.18195280470002
 30
0.0
 11
982.62896563103789
 21
614.90195280469993
 31
0.0
  0
LINE
  5
DDD
  8
0
 10
988.4289656310375
 20
614.90195280469993
 30
0.0
 11
988.4289656310375
 21
611.18195280470002
 31
0.0
  0
LINE
  5
DE0
  8
0
 10
982.52896563103764
 20
573.68195280470002
 30
0.0
 11
983.07492098243722
 21
572.1819528046999
 31
0.0
  0
LINE
  5
DE1
  8
0
 10
987.98301027963839
 20
572.1819528046999
 30
0.0
 11
988.52896563103764
 21
573.68195280470002
 31
0.0
  0
LINE
  5
DE2
  8
0
 10
983.07492098243722
 20
572.1819528046999
 30
0.0
 11
987.98301027963839
 21
572.1819528046999
 31
0.0
  0
LINE
  5
DE3
  8
0
 10
981.27896563103775
 20
609.6776488268373
 30
0.0
 11
989.77896563103764
 21
609.6776488268373
 31
0.0
  0
LINE
  5
DE4
  8
0
 10
981.27896563103775
 20
610.29195280470014
 30
0.0
 11
989.77896563103764
 21
610.29195280470014
 31
0.0
  0
LINE
  5
DE5
  8
0
 10
982.62896563103789
 20
611.18195280470002
 30
0.0
 11
988.4289656310375
 21
611.18195280470002
 31
0.0
  0
LINE
  5
DE6
  8
0
 10
985.52896563103752
 20
608.03195280470004
 30
0.0
 11
979.52896563103695
 21
608.03195280470004
 31
0.0
  0
LINE
  5
DE7
  8
0
 10
979.52896563103695
 20
607.03195280470004
 30
0.0
 11
985.52896563103752
 21
607.03195280470027
 31
0.0
  0
LINE
  5
DE8
  8
0
 10
979.52896563103775
 20
589.92195280470003
 30
0.0
 11
991.52896563103764
 21
589.92195280470003
 31
0.0
  0
LINE
  5
DE9
  8
0
 10
991.52896563103764
 20
589.18195280469979
 30
0.0
 11
979.52896563103775
 21
589.18195280469979
 31
0.0
  0
LINE
  5
DEA
  8
0
 10
991.52896563103764
 20
605.29195280470014
 30
0.0
 11
979.52896563103775
 21
605.29195280470014
 31
0.0
  0
LINE
  5
DEB
  8
0
 10
980.02896563103764
 20
606.03195280470004
 30
0.0
 11
991.02896563103775
 21
606.03195280470004
 31
0.0
  0
LINE
  5
DEC
  8
0
 10
980.02896563103764
 20
608.08195280470011
 30
0.0
 11
991.02896563103775
 21
608.08195280470011
 31
0.0
  0
LINE
  5
DED
  8
0
 10
979.52896563103775
 20
608.49195280469996
 30
0.0
 11
991.52896563103764
 21
608.49195280469996
 31
0.0
  0
LINE
  5
DEE
  8
0
 10
982.52896563103764
 20
573.68195280470002
 30
0.0
 11
988.52896563103764
 21
573.68195280470002
 31
0.0
  0
ARC
  5
DEF
  8
0
 10
950.49935313103754
 20
597.6069528047002
 30
0.0
 40
30.029612499999999
 50
345.17224586706322
 51
14.82775413293678
  0
LINE
  5
DF0
  8
0
 10
982.52896563103764
 20
589.18195280469979
 30
0.0
 11
982.52896563103764
 21
573.68195280470002
 31
0.0
  0
ARC
  5
DF1
  8
0
  6
DASHED
 10
983.02896563103695
 20
578.31592740091526
 30
0.0
 40
1.0000000000000511
 50
240.00000000002319
 51
119.9999999999698
  0
ARC
  5
DF2
  8
0
 10
983.02896563103775
 20
578.31592740091548
 30
0.0
 40
0.9999999999999994
 50
119.99999999999901
 51
240.00000000000091
  0
LINE
  5
DF3
  8
0
 10
979.52896563103775
 20
589.18195280469979
 30
0.0
 11
979.52896563103775
 21
589.92195280470003
 31
0.0
  0
LINE
  5
DF4
  8
0
 10
979.52896563103775
 20
608.49195280469996
 30
0.0
 11
980.29896563103762
 21
609.6776488268373
 31
0.0
  0
LINE
  5
DF5
  8
0
 10
979.52896563103775
 20
608.08195280470011
 30
0.0
 11
979.52896563103775
 21
608.49195280469996
 31
0.0
  0
LINE
  5
DF6
  8
0
 10
979.52896563103775
 20
606.03195280470004
 30
0.0
 11
980.02896563103764
 21
606.03195280470004
 31
0.0
  0
LINE
  5
DF7
  8
0
 10
980.02896563103764
 20
608.08195280470011
 30
0.0
 11
979.52896563103775
 21
608.08195280470011
 31
0.0
  0
ARC
  5
DF8
  8
0
 10
979.52896563103775
 20
607.53195280470004
 30
0.0
 40
0.5
 50
90.0
 51
270.0
  0
ARC
  5
DFA
  8
0
 10
979.52896563103775
 20
606.53195280470004
 30
0.0
 40
0.5
 50
90.0
 51
270.0
  0
LINE
  5
DFB
  8
0
 10
980.02896563103764
 20
608.03195280470004
 30
0.0
 11
980.02896563103764
 21
608.08195280470011
 31
0.0
  0
LINE
  5
DFC
  8
0
 10
981.27896563103775
 20
610.29195280470014
 30
0.0
 11
982.09396563103769
 21
611.18195280470002
 31
0.0
  0
LINE
  5
DFD
  8
0
 10
980.29896563103762
 20
609.6776488268373
 30
0.0
 11
981.27896563103775
 21
609.6776488268373
 31
0.0
  0
LINE
  5
DFE
  8
0
 10
981.27896563103775
 20
609.6776488268373
 30
0.0
 11
981.27896563103775
 21
610.29195280470014
 31
0.0
  0
LINE
  5
DFF
  8
0
 10
982.09396563103769
 20
611.18195280470002
 30
0.0
 11
982.62896563103789
 21
611.18195280470002
 31
0.0
  0
LINE
  5
E00
  8
0
 10
979.52896563103775
 20
605.29195280470014
 30
0.0
 11
979.52896563103775
 21
606.03195280470004
 31
0.0
  0
ARC
  5
E01
  8
0
 10
1020.5585781310371
 20
597.6069528047002
 30
0.0
 40
30.02961250000002
 50
165.1722458670632
 51
194.8277541329368
  0
LINE
  5
E02
  8
0
 10
988.52896563103764
 20
573.68195280470002
 30
0.0
 11
988.52896563103764
 21
589.18195280469979
 31
0.0
  0
ARC
  5
E03
  8
0
  6
DASHED
 10
988.02896563103809
 20
578.31592740091526
 30
0.0
 40
1.0000000000000511
 50
60.000000000030163
 51
299.99999999997669
  0
ARC
  5
E04
  8
0
 10
988.02896563103764
 20
578.31592740091548
 30
0.0
 40
1.0000000000000011
 50
299.99999999999898
 51
60.000000000000973
  0
LINE
  5
E05
  8
0
 10
991.52896563103764
 20
589.92195280470003
 30
0.0
 11
991.52896563103764
 21
589.18195280469979
 31
0.0
  0
LINE
  5
E06
  8
0
 10
990.75896563103765
 20
609.6776488268373
 30
0.0
 11
991.52896563103764
 21
608.49195280469996
 31
0.0
  0
LINE
  5
E07
  8
0
 10
991.52896563103764
 20
608.49195280469996
 30
0.0
 11
991.52896563103764
 21
608.08195280470011
 31
0.0
  0
LINE
  5
E08
  8
0
 10
991.02896563103775
 20
606.03195280470004
 30
0.0
 11
991.52896563103764
 21
606.03195280470004
 31
0.0
  0
LINE
  5
E09
  8
0
 10
991.52896563103764
 20
608.08195280470011
 30
0.0
 11
991.02896563103775
 21
608.08195280470011
 31
0.0
  0
LINE
  5
E0B
  8
0
 10
991.02896563103775
 20
608.08195280470011
 30
0.0
 11
991.02896563103775
 21
608.03195280470004
 31
0.0
  0
ARC
  5
E0C
  8
0
 10
991.52896563103764
 20
607.53195280470004
 30
0.0
 40
0.5
 50
270.0
 51
90.0
  0
ARC
  5
E0D
  8
0
 10
991.52896563103764
 20
606.53195280470004
 30
0.0
 40
0.5
 50
270.0
 51
90.0
  0
LINE
  5
E0E
  8
0
 10
991.52896563103764
 20
606.03195280470004
 30
0.0
 11
991.52896563103764
 21
605.29195280470014
 31
0.0
  0
LINE
  5
E0F
  8
0
 10
988.96396563103804
 20
611.18195280470002
 30
0.0
 11
989.77896563103764
 21
610.29195280470014
 31
0.0
  0
LINE
  5
E10
  8
0
 10
988.4289656310375
 20
611.18195280470002
 30
0.0
 11
988.96396563103804
 21
611.18195280470002
 31
0.0
  0
LINE
  5
E11
  8
0
 10
989.77896563103764
 20
610.29195280470014
 30
0.0
 11
989.77896563103764
 21
609.6776488268373
 31
0.0
  0
LINE
  5
E12
  8
0
 10
985.52896563103752
 20
608.03195280470004
 30
0.0
 11
991.52896563103809
 21
608.03195280470004
 31
0.0
  0
LINE
  5
E13
  8
0
 10
991.52896563103809
 20
607.03195280470004
 30
0.0
 11
985.52896563103752
 21
607.03195280470027
 31
0.0
  0
LINE
  5
E14
  8
0
 10
989.77896563103764
 20
609.6776488268373
 30
0.0
 11
990.75896563103765
 21
609.6776488268373
 31
0.0
  0
LINE
  5
E15
  8
0
 10
982.62896563103789
 20
614.90195280469993
 30
0.0
 11
988.4289656310375
 21
614.90195280469993
 31
0.0
  0
LINE
  5
E16
  8
0
 10
983.12896563103777
 20
615.40195280469993
 30
0.0
 11
987.92896563103761
 21
615.40195280469993
 31
0.0
  0
LINE
  5
E17
  8
0
 10
982.62896563103789
 20
614.90195280469993
 30
0.0
 11
983.12896563103777
 21
615.40195280469993
 31
0.0
  0
LINE
  5
E18
  8
0
 10
987.92896563103761
 20
615.40195280469993
 30
0.0
 11
988.4289656310375
 21
614.90195280469993
 31
0.0
  0
LINE
  5
E19
  8
0
  6
CENTER
 10
969.63700452213618
 20
607.00983848766987
 30
0.0
 11
965.63700452213607
 21
613.93804171794568
 31
0.0
1001
GENIUS_GENOBJ-N-CEN_13
1002
{
1000
OWNER
1000
GEN
1002
}
1001
GENIUS_GENODEF_13
1002
{
1000
HIER
1070
     0
1002
}
1002
{
1000
MANEDIT
1070
     0
1002
}
1002
{
1000
NOSEL
1070
     0
1002
}
1002
{
1000
BEHIND
1070
     0
1002
}
1002
{
1000
OTHER
1070
     0
1002
}
1002
{
1000
REACTOR
1002
}
  0
ARC
  5
E1A
  8
0
 10
970.63459978632818
 20
612.78195280470004
 30
0.0
 40
0.5000000000000308
 50
299.99999999999898
 51
127.594643368593
  0
LINE
  5
E1B
  8
0
 10
952.46251245868541
 20
611.18195280470002
 30
0.0
 11
952.46251245868541
 21
614.90195280470004
 31
0.0
  0
LINE
  5
E1C
  8
0
 10
958.26251245868514
 20
614.90195280470004
 30
0.0
 11
958.26251245868514
 21
611.18195280470002
 31
0.0
  0
LINE
  5
E1D
  8
0
 10
961.46537115226761
 20
608.06544645375413
 30
0.0
 11
970.38459978632795
 21
613.21496550659219
 31
0.0
  0
LINE
  5
E1E
  8
0
 10
970.32956424162842
 20
613.17812614614263
 30
0.0
 11
964.33437371324555
 21
608.56210074235855
 31
0.0
  0
LINE
  5
E21
  8
0
 10
952.36251245868505
 20
573.68195280470002
 30
0.0
 11
952.90846781008418
 21
572.1819528046999
 31
0.0
  0
LINE
  5
E22
  8
0
 10
957.81655710728558
 20
572.1819528046999
 30
0.0
 11
958.36251245868505
 21
573.68195280470002
 31
0.0
  0
LINE
  5
E23
  8
0
 10
952.90846781008418
 20
572.1819528046999
 30
0.0
 11
957.81655710728558
 21
572.1819528046999
 31
0.0
  0
ARC
  5
E24
  8
0
 10
920.33289995868495
 20
597.6069528047002
 30
0.0
 40
30.029612499999999
 50
345.17224586706328
 51
14.827754132936681
  0
ARC
  5
E25
  8
0
 10
990.39212495868514
 20
597.6069528047002
 30
0.0
 40
30.02961250000002
 50
165.17224586706331
 51
194.8277541329366
  0
LINE
  5
E26
  8
0
 10
958.36251245868505
 20
573.68195280470002
 30
0.0
 11
958.36251245868505
 21
589.18195280469979
 31
0.0
  0
LINE
  5
E27
  8
0
 10
952.36251245868505
 20
589.18195280469979
 30
0.0
 11
952.36251245868505
 21
573.68195280470002
 31
0.0
  0
LINE
  5
E28
  8
0
 10
952.36251245868505
 20
573.68195280470002
 30
0.0
 11
958.36251245868505
 21
573.68195280470002
 31
0.0
  0
CIRCLE
  5
E29
  8
0
 10
955.36251245868505
 20
578.31592740091571
 30
0.0
 40
0.8660254037844385
  0
LINE
  5
E2A
  8
0
 10
949.36251245868505
 20
589.92195280470003
 30
0.0
 11
961.36251245868505
 21
589.92195280470003
 31
0.0
  0
LINE
  5
E2B
  8
0
 10
961.36251245868505
 20
589.18195280469979
 30
0.0
 11
949.36251245868505
 21
589.18195280469979
 31
0.0
  0
LINE
  5
E2C
  8
0
 10
949.36251245868505
 20
589.18195280469979
 30
0.0
 11
949.36251245868505
 21
589.92195280470003
 31
0.0
  0
LINE
  5
E2D
  8
0
 10
961.36251245868505
 20
589.92195280470003
 30
0.0
 11
961.36251245868505
 21
589.18195280469979
 31
0.0
  0
LINE
  5
E2E
  8
0
 10
961.79133304659058
 20
607.098940102808
 30
0.0
 11
964.38940925794486
 21
608.59894010280811
 31
0.0
  0
ARC
  5
E2F
  8
0
 10
964.63940925794498
 20
608.16592740091551
 30
0.0
 40
0.499999999999992
 50
119.99999999999901
 51
307.5946433685931
  0
LINE
  5
E30
  8
0
 10
949.86251245868493
 20
606.03195280470004
 30
0.0
 11
960.86251245868505
 21
606.03195280470004
 31
0.0
  0
LINE
  5
E31
  8
0
 10
949.86251245868493
 20
608.08195280470011
 30
0.0
 11
960.86251245868505
 21
608.08195280470011
 31
0.0
  0
LINE
  5
E32
  8
0
 10
961.34037115226772
 20
608.03195280470004
 30
0.0
 11
949.36251245868425
 21
608.03195280470004
 31
0.0
  0
LINE
  5
E33
  8
0
 10
949.36251245868425
 20
607.03195280470004
 30
0.0
 11
961.54133304659047
 21
607.03195280470027
 31
0.0
  0
LINE
  5
E34
  8
0
 10
949.36251245868505
 20
608.49195280469996
 30
0.0
 11
961.36251245868505
 21
608.49195280469996
 31
0.0
  0
LINE
  5
E35
  8
0
 10
951.11251245868505
 20
609.6776488268373
 30
0.0
 11
959.61251245868493
 21
609.6776488268373
 31
0.0
  0
LINE
  5
E36
  8
0
 10
951.11251245868505
 20
610.29195280470014
 30
0.0
 11
959.61251245868493
 21
610.29195280470014
 31
0.0
  0
LINE
  5
E37
  8
0
 10
952.46251245868541
 20
611.18195280470002
 30
0.0
 11
958.26251245868514
 21
611.18195280470002
 31
0.0
  0
LINE
  5
E38
  8
0
 10
961.36251245868505
 20
605.29195280470014
 30
0.0
 11
949.36251245868505
 21
605.29195280470014
 31
0.0
  0
LINE
  5
E39
  8
0
 10
949.36251245868505
 20
608.49195280469996
 30
0.0
 11
950.13251245868503
 21
609.6776488268373
 31
0.0
  0
LINE
  5
E3A
  8
0
 10
949.36251245868505
 20
608.08195280470011
 30
0.0
 11
949.36251245868505
 21
608.49195280469996
 31
0.0
  0
LINE
  5
E3B
  8
0
 10
949.36251245868505
 20
606.03195280470004
 30
0.0
 11
949.86251245868493
 21
606.03195280470004
 31
0.0
  0
LINE
  5
E3C
  8
0
 10
949.86251245868493
 20
608.08195280470011
 30
0.0
 11
949.36251245868505
 21
608.08195280470011
 31
0.0
  0
ARC
  5
E3D
  8
0
 10
949.36251245868505
 20
606.53195280470004
 30
0.0
 40
0.5
 50
90.0
 51
270.0
  0
ARC
  5
E3E
  8
0
 10
949.36251245868505
 20
607.53195280470004
 30
0.0
 40
0.5
 50
90.0
 51
270.0
  0
LINE
  5
E3F
  8
0
 10
949.86251245868493
 20
608.03195280470004
 30
0.0
 11
949.86251245868493
 21
608.08195280470011
 31
0.0
  0
LINE
  5
E41
  8
0
 10
951.11251245868505
 20
610.29195280470014
 30
0.0
 11
951.92751245868487
 21
611.18195280470002
 31
0.0
  0
LINE
  5
E42
  8
0
 10
950.13251245868503
 20
609.6776488268373
 30
0.0
 11
951.11251245868505
 21
609.6776488268373
 31
0.0
  0
LINE
  5
E43
  8
0
 10
951.11251245868505
 20
609.6776488268373
 30
0.0
 11
951.11251245868505
 21
610.29195280470014
 31
0.0
  0
LINE
  5
E44
  8
0
 10
951.92751245868487
 20
611.18195280470002
 30
0.0
 11
952.46251245868541
 21
611.18195280470002
 31
0.0
  0
LINE
  5
E45
  8
0
 10
949.36251245868505
 20
605.29195280470014
 30
0.0
 11
949.36251245868505
 21
606.03195280470004
 31
0.0
  0
ARC
  5
E46
  8
0
 10
961.34037115226772
 20
608.28195280470004
 30
0.0
 40
0.25
 50
270.0
 51
299.99999999999898
1001
GENIUS_GENOBJ-N-FIL_13
1002
{
1000
OWNER
1000
GEN
1002
}
1001
GENIUS_GENODEF_13
1002
{
1000
HIER
1070
     0
1002
}
1002
{
1000
MANEDIT
1070
     0
1002
}
1002
{
1000
NOSEL
1070
     0
1002
}
1002
{
1000
BEHIND
1070
     0
1002
}
1002
{
1000
OTHER
1070
     0
1002
}
1002
{
1000
REACTOR
1002
}
  0
ARC
  5
E47
  8
0
 10
961.54133304659047
 20
607.53195280470015
 30
0.0
 40
0.5
 50
270.0
 51
299.99999999999898
1001
GENIUS_GENOBJ-N-FIL_13
1002
{
1000
OWNER
1000
GEN
1002
}
1001
GENIUS_GENODEF_13
1002
{
1000
HIER
1070
     0
1002
}
1002
{
1000
MANEDIT
1070
     0
1002
}
1002
{
1000
NOSEL
1070
     0
1002
}
1002
{
1000
BEHIND
1070
     0
1002
}
1002
{
1000
OTHER
1070
     0
1002
}
1002
{
1000
REACTOR
1002
}
  0
LINE
  5
E48
  8
0
 10
960.59251245868495
 20
609.6776488268373
 30
0.0
 11
961.36251245868505
 21
608.49195280469996
 31
0.0
  0
LINE
  5
E49
  8
0
 10
961.36251245868505
 20
608.49195280469996
 30
0.0
 11
961.36251245868505
 21
608.08195280470011
 31
0.0
  0
LINE
  5
E4A
  8
0
 10
960.86251245868505
 20
606.03195280470004
 30
0.0
 11
961.36251245868505
 21
606.03195280470004
 31
0.0
  0
LINE
  5
E4B
  8
0
 10
961.36251245868505
 20
608.08195280470011
 30
0.0
 11
960.86251245868505
 21
608.08195280470011
 31
0.0
  0
ARC
  5
E4C
  8
0
 10
961.36251245868505
 20
606.53195280470004
 30
0.0
 40
0.5
 50
270.0
 51
90.0
  0
LINE
  5
E4D
  8
0
 10
960.86251245868505
 20
608.08195280470011
 30
0.0
 11
960.86251245868505
 21
608.03195280470004
 31
0.0
  0
LINE
  5
E4F
  8
0
 10
958.79751245868488
 20
611.18195280470002
 30
0.0
 11
959.61251245868493
 21
610.29195280470014
 31
0.0
  0
LINE
  5
E50
  8
0
 10
958.26251245868514
 20
611.18195280470002
 30
0.0
 11
958.79751245868488
 21
611.18195280470002
 31
0.0
  0
LINE
  5
E51
  8
0
 10
959.61251245868493
 20
609.6776488268373
 30
0.0
 11
960.59251245868495
 21
609.6776488268373
 31
0.0
  0
LINE
  5
E52
  8
0
 10
959.61251245868493
 20
610.29195280470014
 30
0.0
 11
959.61251245868493
 21
609.6776488268373
 31
0.0
  0
LINE
  5
E53
  8
0
 10
961.36251245868505
 20
606.03195280470004
 30
0.0
 11
961.36251245868505
 21
605.29195280470014
 31
0.0
  0
CIRCLE
  5
E54
  8
0
 10
971.13459978632807
 20
611.91592740091562
 30
0.0
 40
0.499999999999992
  0
LINE
  5
E55
  8
0
 10
970.93963533102726
 20
612.38577946325745
 30
0.0
 11
964.94444480264406
 21
607.76975405947292
 31
0.0
  0
LINE
  5
E56
  8
0
 10
971.38459978632795
 20
611.48291469902335
 30
0.0
 11
964.88940925794509
 21
607.73291469902335
 31
0.0
  0
LINE
  5
E57
  8
0
 10
952.9625124586853
 20
615.40195280470004
 30
0.0
 11
957.76251245868502
 21
615.40195280470004
 31
0.0
  0
LINE
  5
E58
  8
0
 10
952.46251245868541
 20
614.90195280470004
 30
0.0
 11
958.26251245868514
 21
614.90195280470004
 31
0.0
  0
LINE
  5
E59
  8
0
 10
952.46251245868541
 20
614.90195280470004
 30
0.0
 11
952.9625124586853
 21
615.40195280470004
 31
0.0
  0
LINE
  5
E5A
  8
0
 10
957.76251245868502
 20
615.40195280470004
 30
0.0
 11
958.26251245868514
 21
614.90195280470004
 31
0.0
  0
ARC
  5
E5B
  8
0
 10
955.36251245868505
 20
547.55317824009069
 30
0.0
 40
6.5
 50
352.61330277810322
 51
172.6133027781031
  0
CIRCLE
  5
E5C
  8
0
 10
955.36251245868505
 20
547.55317824009069
 30
0.0
 40
4.25
  0
LINE
  5
E5D
  8
0
  6
CENTER
 10
963.86251245868505
 20
547.55317824009069
 30
0.0
 11
946.86251245868505
 21
547.55317824009069
 31
0.0
1001
GENIUS_GENOREF_13
1005
0
  0
CIRCLE
  5
E5E
  8
0
 10
955.36251245868505
 20
547.55317824009069
 30
0.0
 40
6.0
  0
CIRCLE
  5
E5F
  8
0
 10
955.36251245868505
 20
547.55317824009069
 30
0.0
 40
5.2300000000000173
  0
ARC
  5
E60
  8
0
 10
955.36251245868505
 20
547.55317824009069
 30
0.0
 40
6.5
 50
172.6133027781031
 51
320.410378878686
  0
ARC
  5
E62
  8
0
 10
966.09558941637567
 20
547.55317824009103
 30
0.0
 40
4.8601897820453601
 50
317.51142276866369
 51
42.48857723133623
  0
ARC
  5
E63
  8
0
 10
966.03322566494865
 20
547.55285757363674
 30
0.0
 40
3.922265353302643
 50
322.75769910341188
 51
37.242300896588027
  0
LINE
  5
E64
  8
0
 10
961.12908690248912
 20
545.89588551275733
 30
0.0
 11
964.99107603921425
 21
550.56573426274804
 31
0.0
  0
CIRCLE
  5
E65
  8
0
 10
955.36251245868505
 20
547.55317824009069
 30
0.0
 40
2.3999999999996362
  0
CIRCLE
  5
E66
  8
0
 10
955.36251245868505
 20
547.55317824009069
 30
0.0
 40
2.8999999999996362
  0
CIRCLE
  5
E67
  8
0
 10
955.36251245868505
 20
547.55317824009069
 30
0.0
 40
3.4349999999999441
  0
LINE
  5
E68
  8
0
 10
960.37126861290142
 20
543.410430144006
 30
0.0
 11
963.96454243186031
 21
547.75520162092005
 31
0.0
  0
ARC
  5
E69
  8
0
 10
968.82077845208426
 20
547.55317824009103
 30
0.0
 40
4.8601897820453601
 50
177.6139937555933
 51
222.48857723133619
  0
ARC
  5
E6A
  8
0
 10
968.8831422035114
 20
547.55285757363674
 30
0.0
 40
3.922265353302643
 50
142.75769910341191
 51
217.24230089658801
  0
ARC
  5
E6D
  8
0
 10
967.45800339159234
 20
546.38535877942206
 30
0.0
 40
2.0821805471591301
 50
215.3796114941739
 51
324.62038850593439
  0
ARC
  5
E6E
  8
0
 10
967.45818393422996
 20
546.32777686098075
 30
0.0
 40
3.0277533998419082
 50
222.80516031495179
 51
317.19483968504812
  0
LINE
  5
E70
  8
0
  6
CENTER
 10
955.36251245868505
 20
539.05317824009069
 30
0.0
 11
955.36251245868505
 21
556.05317824009069
 31
0.0
1001
GENIUS_GENOREF_13
1005
0
  0
LINE
  5
E71
  8
0
 10
955.36251245868505
 20
554.0531782400908
 30
0.0
 11
955.36251245868505
 21
553.05317824009057
 31
0.0
  0
ARC
  5
E72
  8
0
 10
967.64418768291114
 20
547.96083547476132
 30
0.0
 40
3.8333294017205128
 50
353.89530935526091
 51
88.851772297024866
  0
LINE
  5
E73
  8
0
 10
971.45577919842185
 20
547.55317824009069
 30
0.0
 11
970.95577919842174
 21
547.55317824009069
 31
0.0
  0
ARC
  5
E74
  8
0
 10
967.45800339159234
 20
548.72099770075931
 30
0.0
 40
2.0821805471591301
 50
35.3796114940655
 51
144.62038850582601
  0
LINE
  5
E75
  8
0
 10
963.96454243186031
 20
547.75520162092005
 30
0.0
 11
965.76033104861995
 21
549.92656165463075
 31
0.0
  0
ARC
  5
E76
  8
0
 10
967.44762510988301
 20
548.75222603976874
 30
0.0
 40
3.0534317433692411
 50
43.033335814832718
 51
143.56399290506761
  0
LINE
  5
E7C
  8
0
  6
CENTER
 10
955.36251245868505
 20
617.40195280470016
 30
0.0
 11
955.36251245868505
 21
570.18195280470002
 31
0.0
  0
LINE
  5
E7D
  8
0
  6
CENTER
 10
985.52896563103775
 20
617.40195280470016
 30
0.0
 11
985.52896563103752
 21
570.18195280470002
 31
0.0
  0
VIEWPORT
  5
8D
 67
     1
  8
0
 10
143.47825622558591
 20
99.980751991271987
 30
0.0
 40
339.12752973873143
 41
222.1965796813964
 68
     1
 69
     1
1001
ACAD
1000
MVIEW
1002
{
1070
    16
1010
0.0
1020
0.0
1030
0.0
1010
0.0
1020
0.0
1030
1.0
1040
0.0
1040
222.1965796813964
1040
143.47825622558591
1040
99.980751991271987
1040
50.0
1040
0.0
1040
0.0
1070
     0
1070
   100
1070
     1
1070
     1
1070
     0
1070
     0
1070
     0
1070
     0
1040
0.0
1040
0.0
1040
0.0
1040
10.0
1040
10.0
1040
10.0
1040
10.0
1070
     0
1002
{
1002
}
1002
}
  0
VIEWPORT
  5
8F
 67
     1
  8
0
 10
143.37242841720581
 20
99.874916553497314
 30
0.0
 40
229.3958854675293
 41
159.79986648559569
 68
     2
 69
     2
1001
ACAD
1000
MVIEW
1002
{
1070
    16
1010
0.0
1020
0.0
1030
0.0
1010
0.0
1020
0.0
1030
1.0
1040
0.0
1040
300.10452961672468
1040
210.0
1040
148.5
1040
50.0
1040
0.0
1040
0.0
1070
     0
1070
   100
1070
     1
1070
     2
1070
     0
1070
     0
1070
     0
1070
     0
1040
0.0
1040
0.0
1040
0.0
1040
10.0
1040
10.0
1040
10.0
1040
10.0
1070
     0
1002
{
1002
}
1002
}
  0
ENDSEC
  0
EOF
