  0
SECTION
  2
HEADER
  9
$ACADVER
  1
AC1009
  9
$INSBASE
 10
0.0
 20
0.0
 30
0.0
  9
$EXTMIN
 10
-115.090659
 20
1.365002
 30
0.0
  9
$EXTMAX
 10
329.480645
 20
134.959144
 30
0.0
  9
$LIMMIN
 10
0.0
 20
0.0
  9
$LIMMAX
 10
12.0
 20
9.0
  9
$ORTHOMODE
 70
     1
  9
$REGENMODE
 70
     1
  9
$FILLMODE
 70
     1
  9
$QTEXTMODE
 70
     0
  9
$MIRRTEXT
 70
     1
  9
$DRAGMODE
 70
     2
  9
$LTSCALE
 40
5.0
  9
$OSMODE
 70
     0
  9
$ATTMODE
 70
     1
  9
$TEXTSIZE
 40
0.2
  9
$TRACEWID
 40
0.05
  9
$TEXTSTYLE
  7
STANDARD
  9
$CLAYER
  8
0
  9
$CELTYPE
  6
BYLAYER
  9
$CECOLOR
 62
   256
  9
$DIMSCALE
 40
1.0
  9
$DIMASZ
 40
2.5
  9
$DIMEXO
 40
0.0
  9
$DIMDLI
 40
5.0
  9
$DIMRND
 40
0.0
  9
$DIMDLE
 40
0.0
  9
$DIMEXE
 40
1.0
  9
$DIMTP
 40
0.0
  9
$DIMTM
 40
0.0
  9
$DIMTXT
 40
2.5
  9
$DIMCEN
 40
0.09
  9
$DIMTSZ
 40
0.0
  9
$DIMTOL
 70
     0
  9
$DIMLIM
 70
     0
  9
$DIMTIH
 70
     0
  9
$DIMTOH
 70
     0
  9
$DIMSE1
 70
     0
  9
$DIMSE2
 70
     0
  9
$DIMTAD
 70
     1
  9
$DIMZIN
 70
     0
  9
$DIMBLK
  1

  9
$DIMASO
 70
     0
  9
$DIMSHO
 70
     0
  9
$DIMPOST
  1

  9
$DIMAPOST
  1

  9
$DIMALT
 70
     0
  9
$DIMALTD
 70
     2
  9
$DIMALTF
 40
25.4
  9
$DIMLFAC
 40
1.0
  9
$DIMTOFL
 70
     1
  9
$DIMTVP
 40
0.0
  9
$DIMTIX
 70
     0
  9
$DIMSOXD
 70
     0
  9
$DIMSAH
 70
     0
  9
$DIMBLK1
  1

  9
$DIMBLK2
  1

  9
$DIMSTYLE
  2
*UNNAMED
  9
$DIMCLRD
 70
     0
  9
$DIMCLRE
 70
     0
  9
$DIMCLRT
 70
     0
  9
$DIMTFAC
 40
1.0
  9
$DIMGAP
 40
0.09
  9
$LUNITS
 70
     2
  9
$LUPREC
 70
     4
  9
$SKETCHINC
 40
0.1
  9
$FILLETRAD
 40
0.0
  9
$AUNITS
 70
     0
  9
$AUPREC
 70
     0
  9
$MENU
  1
wiberger
  9
$ELEVATION
 40
0.0
  9
$PELEVATION
 40
0.0
  9
$THICKNESS
 40
0.0
  9
$LIMCHECK
 70
     0
  9
$BLIPMODE
 70
     1
  9
$CHAMFERA
 40
1.0
  9
$CHAMFERB
 40
1.0
  9
$SKPOLY
 70
     0
  9
$TDCREATE
 40
2450191.374514236
  9
$TDUPDATE
 40
2450219.491948611
  9
$TDINDWG
 40
0.0027151620
  9
$TDUSRTIMER
 40
0.0027151620
  9
$USRTIMER
 70
     1
  9
$ANGBASE
 50
0.0
  9
$ANGDIR
 70
     0
  9
$PDMODE
 70
     0
  9
$PDSIZE
 40
0.0
  9
$PLINEWID
 40
0.0
  9
$COORDS
 70
     0
  9
$SPLFRAME
 70
     0
  9
$SPLINETYPE
 70
     6
  9
$SPLINESEGS
 70
     8
  9
$ATTDIA
 70
     0
  9
$ATTREQ
 70
     1
  9
$HANDLING
 70
     0
  9
$HANDSEED
  5
0
  9
$SURFTAB1
 70
     6
  9
$SURFTAB2
 70
     6
  9
$SURFTYPE
 70
     6
  9
$SURFU
 70
     6
  9
$SURFV
 70
     6
  9
$UCSNAME
  2

  9
$UCSORG
 10
0.0
 20
0.0
 30
0.0
  9
$UCSXDIR
 10
1.0
 20
0.0
 30
0.0
  9
$UCSYDIR
 10
0.0
 20
1.0
 30
0.0
  9
$PUCSNAME
  2

  9
$PUCSORG
 10
0.0
 20
0.0
 30
0.0
  9
$PUCSXDIR
 10
1.0
 20
0.0
 30
0.0
  9
$PUCSYDIR
 10
0.0
 20
1.0
 30
0.0
  9
$USERI1
 70
     0
  9
$USERI2
 70
     0
  9
$USERI3
 70
     0
  9
$USERI4
 70
     0
  9
$USERI5
 70
     0
  9
$USERR1
 40
0.0
  9
$USERR2
 40
0.0
  9
$USERR3
 40
0.0
  9
$USERR4
 40
0.0
  9
$USERR5
 40
0.0
  9
$WORLDVIEW
 70
     1
  9
$SHADEDGE
 70
     3
  9
$SHADEDIF
 70
    70
  9
$TILEMODE
 70
     1
  9
$MAXACTVP
 70
    16
  9
$PINSBASE
 10
0.0
 20
0.0
 30
0.0
  9
$PLIMCHECK
 70
     0
  9
$PEXTMIN
 10
1.000000E+20
 20
1.000000E+20
 30
1.000000E+20
  9
$PEXTMAX
 10
-1.000000E+20
 20
-1.000000E+20
 30
-1.000000E+20
  9
$PLIMMIN
 10
0.0
 20
0.0
  9
$PLIMMAX
 10
12.0
 20
9.0
  9
$UNITMODE
 70
     0
  9
$VISRETAIN
 70
     0
  9
$PLINEGEN
 70
     0
  9
$PSLTSCALE
 70
     0
  9
$TREEDEPTH
 70
  3020
  9
$DWGCODEPAGE
  3
undefined
  0
ENDSEC
  0
SECTION
  2
TABLES
  0
TABLE
  2
VPORT
 70
     2
  0
VPORT
  2
*ACTIVE
 70
     0
 10
0.0
 20
0.0
 11
1.0
 21
1.0
 12
174.614712
 22
84.841651
 13
0.0
 23
0.0
 14
1.0
 24
1.0
 15
0.0
 25
0.0
 16
0.0
 26
0.0
 36
1.0
 17
0.0
 27
0.0
 37
0.0
 40
355.183271
 41
1.767507
 42
50.0
 43
0.0
 44
0.0
 50
0.0
 51
0.0
 71
     0
 72
   100
 73
     1
 74
     0
 75
     0
 76
     0
 77
     0
 78
     0
  0
ENDTAB
  0
TABLE
  2
LTYPE
 70
     2
  0
LTYPE
  2
CONTINUOUS
 70
    64
  3
Solid line
 72
    65
 73
     0
 40
0.0
  0
LTYPE
  2
CENTER
 70
    64
  3
____ _ ____ _ ____ _ ____ _ ____ _ ____ _ ____
 72
    65
 73
     4
 40
2.0
 49
1.25
 49
-0.25
 49
0.25
 49
-0.25
  0
ENDTAB
  0
TABLE
  2
LAYER
 70
     1
  0
LAYER
  2
0
 70
    64
 62
     7
  6
CONTINUOUS
  0
ENDTAB
  0
TABLE
  2
STYLE
 70
     1
  0
STYLE
  2
STANDARD
 70
     0
 40
0.0
 41
1.0
 50
0.0
 71
     0
 42
0.2
  3
txt
  4

  0
ENDTAB
  0
TABLE
  2
VIEW
 70
     0
  0
ENDTAB
  0
TABLE
  2
UCS
 70
     0
  0
ENDTAB
  0
TABLE
  2
APPID
 70
     1
  0
APPID
  2
ACAD
 70
    64
  0
ENDTAB
  0
TABLE
  2
DIMSTYLE
 70
     0
  0
ENDTAB
  0
ENDSEC
  0
SECTION
  2
BLOCKS
  0
BLOCK
  8
0
  2
*X0
 70
    65
 10
0.0
 20
0.0
 30
0.0
  3
*X
  0
LINE
  8
0
 62
     0
 10
-40.110669
 20
74.44063
 30
0.0
 11
-35.275696
 21
79.275603
 31
0.0
  0
LINE
  8
0
 62
     0
 10
-40.110669
 20
76.56195
 30
0.0
 11
-35.845562
 21
80.827057
 31
0.0
  0
LINE
  8
0
 62
     0
 10
-40.110669
 20
78.68327
 30
0.0
 11
-36.644051
 21
82.149889
 31
0.0
  0
LINE
  8
0
 62
     0
 10
-40.631582
 20
80.283678
 30
0.0
 11
-37.662232
 21
83.253028
 31
0.0
  0
LINE
  8
0
 62
     0
 10
-41.976445
 20
81.060135
 30
0.0
 11
-38.796294
 21
84.240286
 31
0.0
  0
LINE
  8
0
 62
     0
 10
-43.321308
 20
81.836592
 30
0.0
 11
-40.403316
 21
84.754584
 31
0.0
  0
LINE
  8
0
 62
     0
 10
-44.110669
 20
83.168552
 30
0.0
 11
-42.407651
 21
84.871569
 31
0.0
  0
LINE
  8
0
 62
     0
 10
-40.110669
 20
72.319309
 30
0.0
 11
-34.70583
 21
77.724148
 31
0.0
  0
LINE
  8
0
 62
     0
 10
-40.110669
 20
70.197989
 30
0.0
 11
-34.300638
 21
76.00802
 31
0.0
  0
LINE
  8
0
 62
     0
 10
-40.110669
 20
68.076669
 30
0.0
 11
-34.152653
 21
74.034685
 31
0.0
  0
LINE
  8
0
 62
     0
 10
-38.083089
 20
67.982928
 30
0.0
 11
-34.004667
 21
72.06135
 31
0.0
  0
LINE
  8
0
 62
     0
 10
-35.961768
 20
67.982928
 30
0.0
 11
-33.856682
 21
70.088015
 31
0.0
  0
ENDBLK
  8
0
  0
BLOCK
  8
0
  2
*X1
 70
    65
 10
0.0
 20
0.0
 30
0.0
  3
*X
  0
LINE
  8
0
 62
     0
 10
121.114804
 20
26.362495
 30
0.0
 11
125.172264
 21
30.419956
 31
0.0
  0
LINE
  8
0
 62
     0
 10
121.114804
 20
27.776709
 30
0.0
 11
124.663715
 21
31.32562
 31
0.0
  0
LINE
  8
0
 62
     0
 10
121.114804
 20
29.190922
 30
0.0
 11
124.056093
 21
32.132211
 31
0.0
  0
LINE
  8
0
 62
     0
 10
120.751709
 20
30.242041
 30
0.0
 11
123.448471
 21
32.938803
 31
0.0
  0
LINE
  8
0
 62
     0
 10
119.855133
 20
30.759679
 30
0.0
 11
122.84085
 21
33.745395
 31
0.0
  0
LINE
  8
0
 62
     0
 10
118.958558
 20
31.277317
 30
0.0
 11
121.915575
 21
34.234334
 31
0.0
  0
LINE
  8
0
 62
     0
 10
118.061982
 20
31.794955
 30
0.0
 11
120.819196
 21
34.552169
 31
0.0
  0
LINE
  8
0
 62
     0
 10
117.165407
 20
32.312593
 30
0.0
 11
119.722818
 21
34.870004
 31
0.0
  0
LINE
  8
0
 62
     0
 10
117.114804
 20
33.676204
 30
0.0
 11
118.162361
 21
34.723761
 31
0.0
  0
LINE
  8
0
 62
     0
 10
121.114804
 20
24.948282
 30
0.0
 11
125.426009
 21
29.259487
 31
0.0
  0
LINE
  8
0
 62
     0
 10
121.114804
 20
23.534068
 30
0.0
 11
125.679754
 21
28.099018
 31
0.0
  0
LINE
  8
0
 62
     0
 10
121.114804
 20
22.119855
 30
0.0
 11
125.933498
 21
26.938549
 31
0.0
  0
LINE
  8
0
 62
     0
 10
121.114804
 20
20.705641
 30
0.0
 11
126.187243
 21
25.77808
 31
0.0
  0
LINE
  8
0
 62
     0
 10
121.114804
 20
19.291427
 30
0.0
 11
126.440987
 21
24.617611
 31
0.0
  0
LINE
  8
0
 62
     0
 10
121.269997
 20
18.032407
 30
0.0
 11
126.694732
 21
23.457142
 31
0.0
  0
LINE
  8
0
 62
     0
 10
122.684211
 20
18.032407
 30
0.0
 11
126.948476
 21
22.296673
 31
0.0
  0
LINE
  8
0
 62
     0
 10
124.098425
 20
18.032407
 30
0.0
 11
127.202221
 21
21.136204
 31
0.0
  0
LINE
  8
0
 62
     0
 10
125.512638
 20
18.032407
 30
0.0
 11
127.455966
 21
19.975735
 31
0.0
  0
LINE
  8
0
 62
     0
 10
126.926852
 20
18.032407
 30
0.0
 11
127.70971
 21
18.815266
 31
0.0
  0
ENDBLK
  8
0
  0
BLOCK
  8
0
  2
*X2
 70
    65
 10
0.0
 20
0.0
 30
0.0
  3
*X
  0
LINE
  8
0
 62
     0
 10
292.39122
 20
-146.014984
 30
0.0
 11
297.504974
 21
-140.90123
 31
0.0
  0
LINE
  8
0
 62
     0
 10
292.39122
 20
-143.186557
 30
0.0
 11
296.43642
 21
-139.141357
 31
0.0
  0
LINE
  8
0
 62
     0
 10
291.128395
 20
-141.620956
 30
0.0
 11
294.852929
 21
-137.896421
 31
0.0
  0
LINE
  8
0
 62
     0
 10
289.335244
 20
-140.585679
 30
0.0
 11
293.269439
 21
-136.651484
 31
0.0
  0
LINE
  8
0
 62
     0
 10
287.542093
 20
-139.550403
 30
0.0
 11
290.968038
 21
-136.124458
 31
0.0
  0
LINE
  8
0
 62
     0
 10
287.39122
 20
-136.872849
 30
0.0
 11
288.642477
 21
-135.621592
 31
0.0
  0
LINE
  8
0
 62
     0
 10
292.39122
 20
-148.843412
 30
0.0
 11
298.38239
 21
-142.852242
 31
0.0
  0
LINE
  8
0
 62
     0
 10
292.39122
 20
-151.671839
 30
0.0
 11
299.219991
 21
-144.843068
 31
0.0
  0
LINE
  8
0
 62
     0
 10
292.39122
 20
-154.500266
 30
0.0
 11
299.400127
 21
-147.491359
 31
0.0
  0
LINE
  8
0
 62
     0
 10
292.39122
 20
-157.328693
 30
0.0
 11
299.580263
 21
-150.13965
 31
0.0
  0
LINE
  8
0
 62
     0
 10
295.198292
 20
-157.350048
 30
0.0
 11
299.760399
 21
-152.787941
 31
0.0
  0
LINE
  8
0
 62
     0
 10
298.026719
 20
-157.350048
 30
0.0
 11
299.940535
 21
-155.436232
 31
0.0
  0
ENDBLK
  8
0
  0
ENDSEC
  0
SECTION
  2
ENTITIES
  0
LINE
  8
0
 10
-79.110669
 20
60.459144
 30
0.0
 11
-79.110669
 21
42.459144
 31
0.0
  0
LINE
  8
0
 10
-9.110669
 20
60.459144
 30
0.0
 11
-9.110669
 21
49.459144
 31
0.0
  0
LINE
  8
0
 10
-78.110669
 20
61.459144
 30
0.0
 11
-10.110669
 21
61.459144
 31
0.0
  0
LINE
  8
0
 10
-79.110669
 20
42.459144
 30
0.0
 11
-35.235024
 21
42.459144
 31
0.0
  0
LINE
  8
0
 10
-9.110669
 20
49.459144
 30
0.0
 11
-35.235024
 21
42.459144
 31
0.0
  0
LINE
  8
0
 10
-69.710669
 20
25.462866
 30
0.0
 11
-67.090669
 21
25.462866
 31
0.0
  0
ARC
  8
0
 10
-70.610669
 20
16.962866
 30
0.0
 40
8.5
 50
96.078005
 51
263.921995
  0
LINE
  8
0
 10
-71.510669
 20
24.562866
 30
0.0
 11
-71.510669
 21
25.415085
 31
0.0
  0
LINE
  8
0
 10
-69.710669
 20
24.562866
 30
0.0
 11
-69.710669
 21
25.462866
 31
0.0
  0
LINE
  8
0
 10
-71.510669
 20
24.562866
 30
0.0
 11
-69.710669
 21
24.562866
 31
0.0
  0
LINE
  8
0
 10
-67.090669
 20
24.562866
 30
0.0
 11
-67.090669
 21
25.462866
 31
0.0
  0
LINE
  8
0
 10
-67.090669
 20
24.562866
 30
0.0
 11
-65.290669
 21
24.562866
 31
0.0
  0
LINE
  8
0
 10
-65.290669
 20
24.562866
 30
0.0
 11
-65.290669
 21
25.462866
 31
0.0
  0
LINE
  8
0
 10
-65.290669
 20
25.462866
 30
0.0
 11
-62.670669
 21
25.462866
 31
0.0
  0
LINE
  8
0
 10
-62.670669
 20
24.562866
 30
0.0
 11
-62.670669
 21
25.462866
 31
0.0
  0
LINE
  8
0
 10
-62.670669
 20
24.562866
 30
0.0
 11
-60.870669
 21
24.562866
 31
0.0
  0
LINE
  8
0
 10
-60.870669
 20
24.562866
 30
0.0
 11
-60.870669
 21
25.462866
 31
0.0
  0
LINE
  8
0
 10
-60.870669
 20
25.462866
 30
0.0
 11
-58.250669
 21
25.462866
 31
0.0
  0
LINE
  8
0
 10
-58.250669
 20
24.562866
 30
0.0
 11
-58.250669
 21
25.462866
 31
0.0
  0
LINE
  8
0
 10
-58.250669
 20
24.562866
 30
0.0
 11
-56.450669
 21
24.562866
 31
0.0
  0
LINE
  8
0
 10
-56.450669
 20
24.562866
 30
0.0
 11
-56.450669
 21
25.462866
 31
0.0
  0
LINE
  8
0
 10
-56.450669
 20
25.462866
 30
0.0
 11
-53.830669
 21
25.462866
 31
0.0
  0
LINE
  8
0
 10
-53.830669
 20
24.562866
 30
0.0
 11
-53.830669
 21
25.462866
 31
0.0
  0
LINE
  8
0
 10
-53.830669
 20
24.562866
 30
0.0
 11
-52.030669
 21
24.562866
 31
0.0
  0
LINE
  8
0
 10
-52.030669
 20
24.562866
 30
0.0
 11
-52.030669
 21
25.462866
 31
0.0
  0
LINE
  8
0
 10
-52.030669
 20
25.462866
 30
0.0
 11
-49.410669
 21
25.462866
 31
0.0
  0
LINE
  8
0
 10
-49.410669
 20
24.562866
 30
0.0
 11
-49.410669
 21
25.462866
 31
0.0
  0
LINE
  8
0
 10
-49.410669
 20
24.562866
 30
0.0
 11
-47.610669
 21
24.562866
 31
0.0
  0
LINE
  8
0
 10
-47.610669
 20
24.562866
 30
0.0
 11
-47.610669
 21
25.462866
 31
0.0
  0
LINE
  8
0
 10
-45.010669
 20
24.562866
 30
0.0
 11
-43.210669
 21
24.562866
 31
0.0
  0
LINE
  8
0
 10
-43.210669
 20
25.462866
 30
0.0
 11
-20.568709
 21
25.462866
 31
0.0
  0
LINE
  8
0
 10
-42.710669
 20
8.462866
 30
0.0
 11
-20.568709
 21
8.462866
 31
0.0
  0
LINE
  8
0
 10
-42.710669
 20
9.362866
 30
0.0
 11
-42.710669
 21
8.462866
 31
0.0
  0
LINE
  8
0
 10
-44.510669
 20
9.362866
 30
0.0
 11
-42.710669
 21
9.362866
 31
0.0
  0
LINE
  8
0
 10
-44.510669
 20
9.362866
 30
0.0
 11
-44.510669
 21
8.462866
 31
0.0
  0
LINE
  8
0
 10
-47.610669
 20
8.462866
 30
0.0
 11
-44.510669
 21
8.462866
 31
0.0
  0
LINE
  8
0
 10
-47.610669
 20
9.362866
 30
0.0
 11
-47.610669
 21
8.462866
 31
0.0
  0
LINE
  8
0
 10
-49.410669
 20
9.362866
 30
0.0
 11
-47.610669
 21
9.362866
 31
0.0
  0
LINE
  8
0
 10
-49.410669
 20
9.362866
 30
0.0
 11
-49.410669
 21
8.462866
 31
0.0
  0
LINE
  8
0
 10
-52.030669
 20
8.462866
 30
0.0
 11
-49.410669
 21
8.462866
 31
0.0
  0
LINE
  8
0
 10
-52.030669
 20
9.362866
 30
0.0
 11
-52.030669
 21
8.462866
 31
0.0
  0
LINE
  8
0
 10
-53.830669
 20
9.362866
 30
0.0
 11
-52.030669
 21
9.362866
 31
0.0
  0
LINE
  8
0
 10
-53.830669
 20
9.362866
 30
0.0
 11
-53.830669
 21
8.462866
 31
0.0
  0
LINE
  8
0
 10
-56.450669
 20
8.462866
 30
0.0
 11
-53.830669
 21
8.462866
 31
0.0
  0
LINE
  8
0
 10
-56.450669
 20
9.362866
 30
0.0
 11
-56.450669
 21
8.462866
 31
0.0
  0
LINE
  8
0
 10
-58.250669
 20
9.362866
 30
0.0
 11
-56.450669
 21
9.362866
 31
0.0
  0
LINE
  8
0
 10
-58.250669
 20
9.362866
 30
0.0
 11
-58.250669
 21
8.462866
 31
0.0
  0
LINE
  8
0
 10
-60.870669
 20
8.462866
 30
0.0
 11
-58.250669
 21
8.462866
 31
0.0
  0
LINE
  8
0
 10
-60.870669
 20
9.362866
 30
0.0
 11
-60.870669
 21
8.462866
 31
0.0
  0
LINE
  8
0
 10
-62.670669
 20
9.362866
 30
0.0
 11
-60.870669
 21
9.362866
 31
0.0
  0
LINE
  8
0
 10
-62.670669
 20
9.362866
 30
0.0
 11
-62.670669
 21
8.462866
 31
0.0
  0
LINE
  8
0
 10
-65.290669
 20
8.462866
 30
0.0
 11
-62.670669
 21
8.462866
 31
0.0
  0
LINE
  8
0
 10
-65.290669
 20
9.362866
 30
0.0
 11
-65.290669
 21
8.462866
 31
0.0
  0
LINE
  8
0
 10
-67.090669
 20
9.362866
 30
0.0
 11
-65.290669
 21
9.362866
 31
0.0
  0
LINE
  8
0
 10
-67.090669
 20
9.362866
 30
0.0
 11
-67.090669
 21
8.462866
 31
0.0
  0
LINE
  8
0
 10
-71.510669
 20
9.362866
 30
0.0
 11
-69.710669
 21
9.362866
 31
0.0
  0
LINE
  8
0
 10
-69.710669
 20
9.362866
 30
0.0
 11
-69.710669
 21
8.462866
 31
0.0
  0
LINE
  8
0
 10
-71.510669
 20
9.362866
 30
0.0
 11
-71.510669
 21
8.510647
 31
0.0
  0
LINE
  8
0
 10
-69.710669
 20
8.462866
 30
0.0
 11
-67.090669
 21
8.462866
 31
0.0
  0
LINE
  8
0
  6
CENTER
 10
-44.110669
 20
64.602074
 30
0.0
 11
-44.110669
 21
38.92062
 31
0.0
  0
LINE
  8
0
 10
-12.610669
 20
61.459144
 30
0.0
 11
-12.610669
 21
63.959144
 31
0.0
  0
LINE
  8
0
 10
-26.610669
 20
78.959144
 30
0.0
 11
-26.610669
 21
100.906476
 31
0.0
  0
LINE
  8
0
 10
-26.610669
 20
78.959144
 30
0.0
 11
-8.610669
 21
78.959144
 31
0.0
  0
LINE
  8
0
 10
-25.110669
 20
63.959144
 30
0.0
 11
-26.610669
 21
78.959144
 31
0.0
  0
LINE
  8
0
 10
-10.110669
 20
63.959144
 30
0.0
 11
-8.610669
 21
78.959144
 31
0.0
  0
ARC
  8
0
 10
-17.610669
 20
62.959144
 30
0.0
 40
41.0
 50
80.280132
 51
99.719868
  0
ARC
  8
0
 10
-24.110669
 20
100.906476
 30
0.0
 40
2.5
 50
99.719868
 51
180.0
  0
ARC
  8
0
 10
-11.110669
 20
100.906476
 30
0.0
 40
2.5
 50
0.0
 51
80.280132
  0
CIRCLE
  8
0
 10
-17.610669
 20
16.962866
 30
0.0
 40
9.0
  0
LINE
  8
0
 10
-25.110669
 20
63.959144
 30
0.0
 11
-10.110669
 21
63.959144
 31
0.0
  0
LINE
  8
0
 10
228.365564
 20
67.459144
 30
0.0
 11
326.365564
 21
67.459144
 31
0.0
  0
LINE
  8
0
 10
307.865564
 20
69.959144
 30
0.0
 11
305.865564
 21
96.959144
 31
0.0
  0
LINE
  8
0
 10
305.865564
 20
96.959144
 30
0.0
 11
305.865564
 21
130.677561
 31
0.0
  0
LINE
  8
0
 10
326.865564
 20
69.959144
 30
0.0
 11
328.865564
 21
96.959144
 31
0.0
  0
LINE
  8
0
 10
328.865564
 20
96.959144
 30
0.0
 11
328.865564
 21
130.677561
 31
0.0
  0
LINE
  8
0
 10
323.865564
 20
67.459144
 30
0.0
 11
323.865564
 21
69.959144
 31
0.0
  0
ARC
  8
0
 10
317.365564
 20
90.125811
 30
0.0
 40
44.833333
 50
78.840063
 51
101.159937
  0
ARC
  8
0
 10
309.365564
 20
130.677561
 30
0.0
 40
3.5
 50
101.159937
 51
180.0
  0
ARC
  8
0
 10
325.365564
 20
130.677561
 30
0.0
 40
3.5
 50
0.0
 51
78.840063
  0
LINE
  8
0
 10
307.865564
 20
69.959144
 30
0.0
 11
326.865564
 21
69.959144
 31
0.0
  0
CIRCLE
  8
0
 10
317.365564
 20
12.865002
 30
0.0
 40
11.5
  0
LINE
  8
0
 10
-40.110669
 20
54.459144
 30
0.0
 11
-40.110669
 21
42.459144
 31
0.0
  0
LINE
  8
0
 10
-78.110669
 20
61.459144
 30
0.0
 11
-79.110669
 21
60.459144
 31
0.0
  0
LINE
  8
0
 10
-10.110669
 20
61.459144
 30
0.0
 11
-9.110669
 21
60.459144
 31
0.0
  0
LINE
  8
0
 10
-44.110669
 20
54.459144
 30
0.0
 11
-40.110669
 21
54.459144
 31
0.0
  0
LINE
  8
0
 10
-40.110669
 20
54.459144
 30
0.0
 11
-44.110669
 21
56.768545
 31
0.0
  0
LINE
  8
0
 10
-22.610669
 20
61.459144
 30
0.0
 11
-22.610669
 21
63.959144
 31
0.0
  0
LINE
  8
0
 10
-44.110669
 20
59.286957
 30
0.0
 11
-40.933396
 21
59.400442
 31
0.0
  0
LINE
  8
0
 10
-40.933396
 20
59.400442
 30
0.0
 11
-38.48004
 21
58.61529
 31
0.0
  0
LINE
  8
0
 10
-38.48004
 20
58.61529
 30
0.0
 11
-36.124818
 21
56.063547
 31
0.0
  0
LINE
  8
0
 10
-36.124818
 20
56.063547
 30
0.0
 11
-34.358402
 21
51.254491
 31
0.0
  0
LINE
  8
0
 10
-34.358402
 20
51.254491
 30
0.0
 11
-33.729077
 21
42.862662
 31
0.0
  0
LINE
  8
0
 10
-47.610669
 20
42.459144
 30
0.0
 11
-47.610669
 21
61.459144
 31
0.0
  0
LINE
  8
0
 10
-49.410669
 20
42.459144
 30
0.0
 11
-49.410669
 21
61.459144
 31
0.0
  0
LINE
  8
0
 10
-52.030669
 20
42.459144
 30
0.0
 11
-52.030669
 21
61.459144
 31
0.0
  0
LINE
  8
0
 10
-53.830669
 20
42.459144
 30
0.0
 11
-53.830669
 21
61.459144
 31
0.0
  0
LINE
  8
0
 10
-56.450669
 20
42.459144
 30
0.0
 11
-56.450669
 21
61.459144
 31
0.0
  0
LINE
  8
0
 10
-58.250669
 20
42.459144
 30
0.0
 11
-58.250669
 21
61.459144
 31
0.0
  0
LINE
  8
0
 10
-60.870669
 20
42.459144
 30
0.0
 11
-60.870669
 21
61.459144
 31
0.0
  0
LINE
  8
0
 10
-62.670669
 20
42.459144
 30
0.0
 11
-62.670669
 21
61.459144
 31
0.0
  0
LINE
  8
0
 10
-65.290669
 20
42.459144
 30
0.0
 11
-65.290669
 21
61.459144
 31
0.0
  0
LINE
  8
0
 10
-67.090669
 20
42.459144
 30
0.0
 11
-67.090669
 21
61.459144
 31
0.0
  0
LINE
  8
0
 10
-69.710669
 20
42.459144
 30
0.0
 11
-69.710669
 21
61.459144
 31
0.0
  0
LINE
  8
0
 10
-71.510669
 20
42.459144
 30
0.0
 11
-71.510669
 21
61.459144
 31
0.0
  0
LINE
  8
0
 10
-79.110669
 20
60.459144
 30
0.0
 11
-71.510669
 21
60.459144
 31
0.0
  0
LINE
  8
0
 10
-69.710669
 20
60.459144
 30
0.0
 11
-67.090669
 21
60.459144
 31
0.0
  0
LINE
  8
0
 10
-65.290669
 20
60.459144
 30
0.0
 11
-62.670669
 21
60.459144
 31
0.0
  0
LINE
  8
0
 10
-60.870669
 20
60.459144
 30
0.0
 11
-58.250669
 21
60.459144
 31
0.0
  0
LINE
  8
0
 10
-56.450669
 20
60.459144
 30
0.0
 11
-53.830669
 21
60.459144
 31
0.0
  0
LINE
  8
0
 10
-52.030669
 20
60.459144
 30
0.0
 11
-49.410669
 21
60.459144
 31
0.0
  0
LINE
  8
0
 10
-47.610669
 20
60.459144
 30
0.0
 11
-45.010669
 21
60.459144
 31
0.0
  0
LINE
  8
0
  6
CONTINUOUS
 10
-45.010669
 20
61.459144
 30
0.0
 11
-45.010669
 21
42.459144
 31
0.0
  0
LINE
  8
0
 10
-43.210669
 20
60.459144
 30
0.0
 11
-9.110669
 21
60.459144
 31
0.0
  0
LINE
  8
0
 10
-45.010669
 20
25.462866
 30
0.0
 11
-45.010669
 21
24.562866
 31
0.0
  0
LINE
  8
0
 10
-47.610669
 20
25.462866
 30
0.0
 11
-45.010669
 21
25.462866
 31
0.0
  0
LINE
  8
0
 10
-43.210669
 20
25.462866
 30
0.0
 11
-43.210669
 21
24.562866
 31
0.0
  0
LINE
  8
0
 10
-43.210669
 20
59.319103
 30
0.0
 11
-43.210669
 21
61.459144
 31
0.0
  0
LINE
  8
0
 10
-70.610669
 20
24.462866
 30
0.0
 11
-22.585606
 21
24.462866
 31
0.0
  0
ARC
  8
0
 10
-70.610669
 20
16.962866
 30
0.0
 40
7.5
 50
89.999996
 51
270.000004
  0
LINE
  8
0
 10
-70.610669
 20
9.462866
 30
0.0
 11
-22.585606
 21
9.462866
 31
0.0
  0
LINE
  8
0
 10
-113.140521
 20
63.959144
 30
0.0
 11
-98.140521
 21
63.959144
 31
0.0
  0
ARC
  8
0
 10
-99.140521
 20
100.906476
 30
0.0
 40
2.5
 50
0.0
 51
80.280132
  0
ARC
  8
0
 10
-112.140521
 20
100.906476
 30
0.0
 40
2.5
 50
99.719868
 51
180.0
  0
ARC
  8
0
 10
-105.640521
 20
62.959144
 30
0.0
 40
41.0
 50
80.280132
 51
99.719868
  0
LINE
  8
0
 10
-98.140521
 20
63.959144
 30
0.0
 11
-96.640521
 21
78.959144
 31
0.0
  0
LINE
  8
0
 10
-113.140521
 20
63.959144
 30
0.0
 11
-114.640521
 21
78.959144
 31
0.0
  0
LINE
  8
0
 10
-114.640521
 20
78.959144
 30
0.0
 11
-96.640521
 21
78.959144
 31
0.0
  0
LINE
  8
0
 10
-96.640521
 20
78.959144
 30
0.0
 11
-96.640521
 21
100.906476
 31
0.0
  0
LINE
  8
0
 10
-114.640521
 20
78.959144
 30
0.0
 11
-114.640521
 21
100.906476
 31
0.0
  0
LINE
  8
0
 10
-110.640521
 20
61.459144
 30
0.0
 11
-110.640521
 21
63.959144
 31
0.0
  0
LINE
  8
0
 10
-100.640521
 20
61.459144
 30
0.0
 11
-100.640521
 21
63.959144
 31
0.0
  0
LINE
  8
0
 10
-114.140521
 20
42.459144
 30
0.0
 11
-97.140521
 21
42.459144
 31
0.0
  0
LINE
  8
0
 10
-113.140521
 20
61.459144
 30
0.0
 11
-98.140521
 21
61.459144
 31
0.0
  0
LINE
  8
0
 10
-114.140521
 20
60.459144
 30
0.0
 11
-97.140521
 21
60.459144
 31
0.0
  0
LINE
  8
0
 10
-114.140521
 20
60.459144
 30
0.0
 11
-114.140521
 21
42.459144
 31
0.0
  0
LINE
  8
0
 10
-97.140521
 20
60.459144
 30
0.0
 11
-97.140521
 21
42.459144
 31
0.0
  0
LINE
  8
0
 10
-113.140521
 20
61.459144
 30
0.0
 11
-114.140521
 21
60.459144
 31
0.0
  0
LINE
  8
0
 10
-97.140521
 20
60.459144
 30
0.0
 11
-98.140521
 21
61.459144
 31
0.0
  0
INSERT
  8
0
  2
*X0
 10
0.0
 20
-25.523784
 30
0.0
  0
LINE
  8
0
 10
143.809238
 20
62.459144
 30
0.0
 11
143.809238
 21
50.459144
 31
0.0
  0
LINE
  8
0
 10
63.809238
 20
42.459144
 30
0.0
 11
113.952832
 21
42.459144
 31
0.0
  0
LINE
  8
0
  6
CENTER
 10
103.809238
 20
66.791637
 30
0.0
 11
103.809238
 21
38.934459
 31
0.0
  0
LINE
  8
0
 10
139.809238
 20
63.459144
 30
0.0
 11
139.809238
 21
65.959144
 31
0.0
  0
LINE
  8
0
 10
124.309238
 20
85.959144
 30
0.0
 11
145.309238
 21
85.959144
 31
0.0
  0
LINE
  8
0
 10
126.309238
 20
65.959144
 30
0.0
 11
124.309238
 21
85.959144
 31
0.0
  0
LINE
  8
0
 10
124.309238
 20
85.959144
 30
0.0
 11
124.309238
 21
111.730754
 31
0.0
  0
LINE
  8
0
 10
143.309238
 20
65.959144
 30
0.0
 11
145.309238
 21
85.959144
 31
0.0
  0
LINE
  8
0
 10
145.309238
 20
85.959144
 30
0.0
 11
145.309238
 21
111.730754
 31
0.0
  0
ARC
  8
0
 10
134.809238
 20
78.459144
 30
0.0
 40
37.5
 50
78.118844
 51
101.881156
  0
ARC
  8
0
 10
127.809238
 20
111.730754
 30
0.0
 40
3.5
 50
101.881156
 51
180.0
  0
ARC
  8
0
 10
141.809238
 20
111.730754
 30
0.0
 40
3.5
 50
0.0
 51
78.118844
  0
LINE
  8
0
 10
126.309238
 20
65.959144
 30
0.0
 11
143.309238
 21
65.959144
 31
0.0
  0
LINE
  8
0
 10
129.809238
 20
65.959144
 30
0.0
 11
129.809238
 21
63.459144
 31
0.0
  0
LINE
  8
0
 10
143.809238
 20
50.459144
 30
0.0
 11
113.952832
 21
42.459144
 31
0.0
  0
LINE
  8
0
  6
CONTINUOUS
 10
98.429238
 20
63.459144
 30
0.0
 11
98.429238
 21
42.459144
 31
0.0
  0
LINE
  8
0
 10
95.809238
 20
62.459144
 30
0.0
 11
98.429238
 21
62.459144
 31
0.0
  0
LINE
  8
0
 10
91.389238
 20
62.459144
 30
0.0
 11
94.009238
 21
62.459144
 31
0.0
  0
LINE
  8
0
 10
86.969238
 20
62.459144
 30
0.0
 11
89.589238
 21
62.459144
 31
0.0
  0
LINE
  8
0
 10
82.549238
 20
62.459144
 30
0.0
 11
85.169238
 21
62.459144
 31
0.0
  0
LINE
  8
0
 10
78.129238
 20
62.459144
 30
0.0
 11
80.749238
 21
62.459144
 31
0.0
  0
LINE
  8
0
 10
73.709238
 20
62.459144
 30
0.0
 11
76.329238
 21
62.459144
 31
0.0
  0
LINE
  8
0
 10
63.809238
 20
62.459144
 30
0.0
 11
71.909238
 21
62.459144
 31
0.0
  0
LINE
  8
0
 10
71.909238
 20
25.113715
 30
0.0
 11
71.909238
 21
25.868602
 31
0.0
  0
LINE
  8
0
 10
73.709238
 20
25.113715
 30
0.0
 11
73.709238
 21
25.913715
 31
0.0
  0
LINE
  8
0
 10
76.329238
 20
25.113715
 30
0.0
 11
76.329238
 21
25.913715
 31
0.0
  0
LINE
  8
0
 10
78.129238
 20
25.113715
 30
0.0
 11
78.129238
 21
25.913715
 31
0.0
  0
LINE
  8
0
 10
80.749238
 20
25.113715
 30
0.0
 11
80.749238
 21
25.913715
 31
0.0
  0
LINE
  8
0
 10
82.549238
 20
25.113715
 30
0.0
 11
82.549238
 21
25.913715
 31
0.0
  0
LINE
  8
0
 10
85.169238
 20
25.113715
 30
0.0
 11
85.169238
 21
25.913715
 31
0.0
  0
LINE
  8
0
 10
86.969238
 20
25.113715
 30
0.0
 11
86.969238
 21
25.913715
 31
0.0
  0
LINE
  8
0
 10
89.589238
 20
25.113715
 30
0.0
 11
89.589238
 21
25.913715
 31
0.0
  0
LINE
  8
0
 10
91.389238
 20
25.113715
 30
0.0
 11
91.389238
 21
25.913715
 31
0.0
  0
LINE
  8
0
 10
94.009238
 20
25.113715
 30
0.0
 11
94.009238
 21
25.913715
 31
0.0
  0
LINE
  8
0
 10
95.809238
 20
25.113715
 30
0.0
 11
95.809238
 21
25.913715
 31
0.0
  0
LINE
  8
0
 10
64.809238
 20
63.459144
 30
0.0
 11
63.809238
 21
62.459144
 31
0.0
  0
LINE
  8
0
 10
63.809238
 20
62.459144
 30
0.0
 11
63.809238
 21
42.459144
 31
0.0
  0
LINE
  8
0
 10
64.809238
 20
63.459144
 30
0.0
 11
142.809238
 21
63.459144
 31
0.0
  0
LINE
  8
0
 10
100.229238
 20
25.113715
 30
0.0
 11
100.229238
 21
25.913715
 31
0.0
  0
LINE
  8
0
 10
100.229238
 20
62.459144
 30
0.0
 11
102.849238
 21
62.459144
 31
0.0
  0
LINE
  8
0
  6
CONTINUOUS
 10
102.849238
 20
63.459144
 30
0.0
 11
102.849238
 21
42.459144
 31
0.0
  0
LINE
  8
0
 10
104.649238
 20
59.119522
 30
0.0
 11
104.649238
 21
63.459144
 31
0.0
  0
LINE
  8
0
 10
104.649238
 20
62.459144
 30
0.0
 11
143.809238
 21
62.459144
 31
0.0
  0
LINE
  8
0
 10
142.809238
 20
63.459144
 30
0.0
 11
143.809238
 21
62.459144
 31
0.0
  0
LINE
  8
0
 10
107.809238
 20
54.459144
 30
0.0
 11
107.809238
 21
42.459144
 31
0.0
  0
LINE
  8
0
 10
103.809238
 20
54.459144
 30
0.0
 11
107.809238
 21
54.459144
 31
0.0
  0
LINE
  8
0
 10
107.809238
 20
54.459144
 30
0.0
 11
103.809238
 21
56.768545
 31
0.0
  0
LINE
  8
0
 10
103.809238
 20
58.994162
 30
0.0
 11
106.219962
 21
59.353935
 31
0.0
  0
LINE
  8
0
 10
106.219962
 20
59.353935
 30
0.0
 11
109.322568
 21
58.454503
 31
0.0
  0
LINE
  8
0
 10
109.322568
 20
58.454503
 30
0.0
 11
111.79566
 21
55.171579
 31
0.0
  0
LINE
  8
0
 10
111.79566
 20
55.171579
 30
0.0
 11
114.540869
 21
42.616708
 31
0.0
  0
INSERT
  8
0
  2
*X1
 10
-13.305566
 20
24.426737
 30
0.0
  0
LINE
  8
0
 10
73.709238
 20
25.913715
 30
0.0
 11
76.329238
 21
25.913715
 31
0.0
  0
CIRCLE
  8
0
 10
134.809238
 20
16.913715
 30
0.0
 40
10.5
  0
ARC
  8
0
 10
72.809238
 20
16.913715
 30
0.0
 40
9.0
 50
95.73917
 51
264.26083
  0
ARC
  8
0
 10
72.809238
 20
16.913715
 30
0.0
 40
8.0
 50
89.999998
 51
270.000002
  0
LINE
  8
0
 10
71.909238
 20
42.459144
 30
0.0
 11
71.909238
 21
63.459144
 31
0.0
  0
LINE
  8
0
 10
73.709238
 20
42.459144
 30
0.0
 11
73.709238
 21
63.459144
 31
0.0
  0
LINE
  8
0
 10
76.329238
 20
42.459144
 30
0.0
 11
76.329238
 21
63.459144
 31
0.0
  0
LINE
  8
0
 10
78.129238
 20
42.459144
 30
0.0
 11
78.129238
 21
63.459144
 31
0.0
  0
LINE
  8
0
 10
82.549238
 20
42.459144
 30
0.0
 11
82.549238
 21
63.459144
 31
0.0
  0
LINE
  8
0
 10
85.169238
 20
42.459144
 30
0.0
 11
85.169238
 21
63.459144
 31
0.0
  0
LINE
  8
0
 10
80.749238
 20
42.459144
 30
0.0
 11
80.749238
 21
63.459144
 31
0.0
  0
LINE
  8
0
 10
86.969238
 20
42.459144
 30
0.0
 11
86.969238
 21
63.459144
 31
0.0
  0
LINE
  8
0
 10
89.589238
 20
42.459144
 30
0.0
 11
89.589238
 21
63.459144
 31
0.0
  0
LINE
  8
0
 10
91.389238
 20
42.459144
 30
0.0
 11
91.389238
 21
63.459144
 31
0.0
  0
LINE
  8
0
  6
CONTINUOUS
 10
98.429238
 20
25.913715
 30
0.0
 11
98.429238
 21
25.113715
 31
0.0
  0
LINE
  8
0
 10
95.809238
 20
42.459144
 30
0.0
 11
95.809238
 21
63.459144
 31
0.0
  0
LINE
  8
0
 10
94.009238
 20
42.459144
 30
0.0
 11
94.009238
 21
63.459144
 31
0.0
  0
LINE
  8
0
 10
100.229238
 20
42.459144
 30
0.0
 11
100.229238
 21
63.459144
 31
0.0
  0
LINE
  8
0
  6
CONTINUOUS
 10
102.849238
 20
25.913715
 30
0.0
 11
102.849238
 21
25.113715
 31
0.0
  0
LINE
  8
0
 10
71.909238
 20
25.113715
 30
0.0
 11
73.709238
 21
25.113715
 31
0.0
  0
LINE
  8
0
 10
76.329238
 20
25.113715
 30
0.0
 11
78.129238
 21
25.113715
 31
0.0
  0
LINE
  8
0
 10
78.129238
 20
25.913715
 30
0.0
 11
80.749238
 21
25.913715
 31
0.0
  0
LINE
  8
0
 10
80.749238
 20
25.113715
 30
0.0
 11
82.549238
 21
25.113715
 31
0.0
  0
LINE
  8
0
 10
82.549238
 20
25.913715
 30
0.0
 11
85.169238
 21
25.913715
 31
0.0
  0
LINE
  8
0
 10
85.169238
 20
25.113715
 30
0.0
 11
86.969238
 21
25.113715
 31
0.0
  0
LINE
  8
0
 10
86.969238
 20
25.913715
 30
0.0
 11
89.589238
 21
25.913715
 31
0.0
  0
LINE
  8
0
 10
89.589238
 20
25.113715
 30
0.0
 11
91.389238
 21
25.113715
 31
0.0
  0
LINE
  8
0
 10
91.389238
 20
25.913715
 30
0.0
 11
94.009238
 21
25.913715
 31
0.0
  0
LINE
  8
0
 10
94.009238
 20
25.113715
 30
0.0
 11
95.809238
 21
25.113715
 31
0.0
  0
LINE
  8
0
 10
95.809238
 20
25.913715
 30
0.0
 11
98.429238
 21
25.913715
 31
0.0
  0
LINE
  8
0
 10
98.429238
 20
25.113715
 30
0.0
 11
100.229238
 21
25.113715
 31
0.0
  0
LINE
  8
0
 10
100.229238
 20
25.913715
 30
0.0
 11
102.849238
 21
25.913715
 31
0.0
  0
LINE
  8
0
 10
104.649238
 20
25.113715
 30
0.0
 11
104.649238
 21
25.913715
 31
0.0
  0
LINE
  8
0
 10
102.849238
 20
25.113715
 30
0.0
 11
104.649238
 21
25.113715
 31
0.0
  0
LINE
  8
0
 10
104.649238
 20
25.913715
 30
0.0
 11
129.400911
 21
25.913715
 31
0.0
  0
LINE
  8
0
 10
72.809238
 20
24.913715
 30
0.0
 11
128.008503
 21
24.913715
 31
0.0
  0
LINE
  8
0
 10
102.849238
 20
8.713715
 30
0.0
 11
104.649238
 21
8.713715
 31
0.0
  0
LINE
  8
0
 10
104.649238
 20
8.713715
 30
0.0
 11
104.649238
 21
7.913715
 31
0.0
  0
LINE
  8
0
 10
100.229238
 20
7.913715
 30
0.0
 11
102.849238
 21
7.913715
 31
0.0
  0
LINE
  8
0
 10
98.429238
 20
8.713715
 30
0.0
 11
100.229238
 21
8.713715
 31
0.0
  0
LINE
  8
0
 10
95.809238
 20
7.913715
 30
0.0
 11
98.429238
 21
7.913715
 31
0.0
  0
LINE
  8
0
 10
94.009238
 20
8.713715
 30
0.0
 11
95.809238
 21
8.713715
 31
0.0
  0
LINE
  8
0
 10
91.389238
 20
7.913715
 30
0.0
 11
94.009238
 21
7.913715
 31
0.0
  0
LINE
  8
0
 10
89.589238
 20
8.713715
 30
0.0
 11
91.389238
 21
8.713715
 31
0.0
  0
LINE
  8
0
 10
86.969238
 20
7.913715
 30
0.0
 11
89.589238
 21
7.913715
 31
0.0
  0
LINE
  8
0
 10
85.169238
 20
8.713715
 30
0.0
 11
86.969238
 21
8.713715
 31
0.0
  0
LINE
  8
0
 10
82.549238
 20
7.913715
 30
0.0
 11
85.169238
 21
7.913715
 31
0.0
  0
LINE
  8
0
 10
80.749238
 20
8.713715
 30
0.0
 11
82.549238
 21
8.713715
 31
0.0
  0
LINE
  8
0
 10
78.129238
 20
7.913715
 30
0.0
 11
80.749238
 21
7.913715
 31
0.0
  0
LINE
  8
0
 10
76.329238
 20
8.713715
 30
0.0
 11
78.129238
 21
8.713715
 31
0.0
  0
LINE
  8
0
 10
71.909238
 20
8.713715
 30
0.0
 11
73.709238
 21
8.713715
 31
0.0
  0
LINE
  8
0
  6
CONTINUOUS
 10
102.849238
 20
7.913715
 30
0.0
 11
102.849238
 21
8.713715
 31
0.0
  0
LINE
  8
0
  6
CONTINUOUS
 10
98.429238
 20
7.913715
 30
0.0
 11
98.429238
 21
8.713715
 31
0.0
  0
LINE
  8
0
 10
73.709238
 20
7.913715
 30
0.0
 11
76.329238
 21
7.913715
 31
0.0
  0
LINE
  8
0
 10
100.229238
 20
8.713715
 30
0.0
 11
100.229238
 21
7.913715
 31
0.0
  0
LINE
  8
0
 10
95.809238
 20
8.713715
 30
0.0
 11
95.809238
 21
7.913715
 31
0.0
  0
LINE
  8
0
 10
94.009238
 20
8.713715
 30
0.0
 11
94.009238
 21
7.913715
 31
0.0
  0
LINE
  8
0
 10
91.389238
 20
8.713715
 30
0.0
 11
91.389238
 21
7.913715
 31
0.0
  0
LINE
  8
0
 10
89.589238
 20
8.713715
 30
0.0
 11
89.589238
 21
7.913715
 31
0.0
  0
LINE
  8
0
 10
86.969238
 20
8.713715
 30
0.0
 11
86.969238
 21
7.913715
 31
0.0
  0
LINE
  8
0
 10
85.169238
 20
8.713715
 30
0.0
 11
85.169238
 21
7.913715
 31
0.0
  0
LINE
  8
0
 10
82.549238
 20
8.713715
 30
0.0
 11
82.549238
 21
7.913715
 31
0.0
  0
LINE
  8
0
 10
80.749238
 20
8.713715
 30
0.0
 11
80.749238
 21
7.913715
 31
0.0
  0
LINE
  8
0
 10
78.129238
 20
8.713715
 30
0.0
 11
78.129238
 21
7.913715
 31
0.0
  0
LINE
  8
0
 10
76.329238
 20
8.713715
 30
0.0
 11
76.329238
 21
7.913715
 31
0.0
  0
LINE
  8
0
 10
73.709238
 20
8.713715
 30
0.0
 11
73.709238
 21
7.913715
 31
0.0
  0
LINE
  8
0
 10
71.909238
 20
8.713715
 30
0.0
 11
71.909238
 21
7.958828
 31
0.0
  0
LINE
  8
0
 10
72.809238
 20
8.913715
 30
0.0
 11
128.008503
 21
8.913715
 31
0.0
  0
LINE
  8
0
 10
104.649238
 20
7.913715
 30
0.0
 11
129.400911
 21
7.913715
 31
0.0
  0
LINE
  8
0
 10
43.650131
 20
63.459144
 30
0.0
 11
44.650131
 21
62.459144
 31
0.0
  0
LINE
  8
0
 10
30.650131
 20
65.959144
 30
0.0
 11
30.650131
 21
63.459144
 31
0.0
  0
LINE
  8
0
 10
27.150131
 20
65.959144
 30
0.0
 11
44.150131
 21
65.959144
 31
0.0
  0
ARC
  8
0
 10
42.650131
 20
111.730754
 30
0.0
 40
3.5
 50
0.0
 51
78.118844
  0
ARC
  8
0
 10
28.650131
 20
111.730754
 30
0.0
 40
3.5
 50
101.881156
 51
180.0
  0
ARC
  8
0
 10
35.650131
 20
78.459144
 30
0.0
 40
37.5
 50
78.118844
 51
101.881156
  0
LINE
  8
0
 10
46.150131
 20
85.959144
 30
0.0
 11
46.150131
 21
111.730754
 31
0.0
  0
LINE
  8
0
 10
44.150131
 20
65.959144
 30
0.0
 11
46.150131
 21
85.959144
 31
0.0
  0
LINE
  8
0
 10
25.150131
 20
85.959144
 30
0.0
 11
25.150131
 21
111.730754
 31
0.0
  0
LINE
  8
0
 10
27.150131
 20
65.959144
 30
0.0
 11
25.150131
 21
85.959144
 31
0.0
  0
LINE
  8
0
 10
25.150131
 20
85.959144
 30
0.0
 11
46.150131
 21
85.959144
 31
0.0
  0
LINE
  8
0
 10
40.650131
 20
63.459144
 30
0.0
 11
40.650131
 21
65.959144
 31
0.0
  0
LINE
  8
0
 10
27.650131
 20
63.459144
 30
0.0
 11
43.650131
 21
63.459144
 31
0.0
  0
LINE
  8
0
 10
44.650131
 20
62.459144
 30
0.0
 11
44.650131
 21
42.459144
 31
0.0
  0
LINE
  8
0
 10
26.650131
 20
62.459144
 30
0.0
 11
44.650131
 21
62.459144
 31
0.0
  0
LINE
  8
0
 10
26.650131
 20
42.459144
 30
0.0
 11
44.650131
 21
42.459144
 31
0.0
  0
LINE
  8
0
 10
26.650131
 20
62.459144
 30
0.0
 11
26.650131
 21
42.459144
 31
0.0
  0
LINE
  8
0
 10
27.650131
 20
63.459144
 30
0.0
 11
26.650131
 21
62.459144
 31
0.0
  0
LINE
  8
0
 10
-8.610669
 20
100.906476
 30
0.0
 11
-8.610669
 21
78.959144
 31
0.0
  0
LINE
  8
0
 10
310.865564
 20
67.459144
 30
0.0
 11
310.865564
 21
69.959144
 31
0.0
  0
LINE
  8
0
  6
CENTER
 10
277.365564
 20
71.308923
 30
0.0
 11
277.365564
 21
38.448678
 31
0.0
  0
LINE
  8
0
 10
227.365564
 20
66.459144
 30
0.0
 11
227.365564
 21
42.459144
 31
0.0
  0
LINE
  8
0
 10
327.365564
 20
66.459144
 30
0.0
 11
327.365564
 21
52.459144
 31
0.0
  0
LINE
  8
0
 10
227.365564
 20
42.459144
 30
0.0
 11
290.045056
 21
42.459144
 31
0.0
  0
LINE
  8
0
 10
327.365564
 20
52.459144
 30
0.0
 11
290.045056
 21
42.459144
 31
0.0
  0
LINE
  8
0
 10
282.365564
 20
57.459144
 30
0.0
 11
282.365564
 21
42.459144
 31
0.0
  0
LINE
  8
0
 10
277.365564
 20
57.459144
 30
0.0
 11
282.365564
 21
57.459144
 31
0.0
  0
LINE
  8
0
 10
282.365564
 20
57.459144
 30
0.0
 11
277.365564
 21
60.345896
 31
0.0
  0
LINE
  8
0
 10
227.365564
 20
66.459144
 30
0.0
 11
228.365564
 21
67.459144
 31
0.0
  0
LINE
  8
0
 10
326.365564
 20
67.459144
 30
0.0
 11
327.365564
 21
66.459144
 31
0.0
  0
LINE
  8
0
 10
227.365564
 20
66.459144
 30
0.0
 11
236.365564
 21
66.459144
 31
0.0
  0
LINE
  8
0
 10
236.365564
 20
22.814877
 30
0.0
 11
236.365564
 21
22.065002
 31
0.0
  0
LINE
  8
0
 10
238.365564
 20
22.865002
 30
0.0
 11
238.365564
 21
22.065002
 31
0.0
  0
LINE
  8
0
 10
241.365564
 20
22.865002
 30
0.0
 11
241.365564
 21
22.065002
 31
0.0
  0
LINE
  8
0
 10
238.365564
 20
66.459144
 30
0.0
 11
241.365564
 21
66.459144
 31
0.0
  0
LINE
  8
0
 10
243.365564
 20
66.459144
 30
0.0
 11
246.365564
 21
66.459144
 31
0.0
  0
LINE
  8
0
 10
248.365564
 20
66.459144
 30
0.0
 11
251.365564
 21
66.459144
 31
0.0
  0
LINE
  8
0
 10
253.365564
 20
66.459144
 30
0.0
 11
256.365564
 21
66.459144
 31
0.0
  0
LINE
  8
0
 10
258.365564
 20
66.459144
 30
0.0
 11
261.365564
 21
66.459144
 31
0.0
  0
LINE
  8
0
 10
263.365564
 20
66.459144
 30
0.0
 11
266.365564
 21
66.459144
 31
0.0
  0
LINE
  8
0
 10
268.365564
 20
66.459144
 30
0.0
 11
271.365564
 21
66.459144
 31
0.0
  0
LINE
  8
0
 10
273.365564
 20
66.459144
 30
0.0
 11
276.365564
 21
66.459144
 31
0.0
  0
LINE
  8
0
 10
278.365564
 20
66.459144
 30
0.0
 11
327.365564
 21
66.459144
 31
0.0
  0
LINE
  8
0
 10
277.365564
 20
64.458165
 30
0.0
 11
283.192229
 21
63.19824
 31
0.0
  0
LINE
  8
0
 10
283.192229
 20
63.19824
 30
0.0
 11
286.839424
 21
60.330824
 31
0.0
  0
LINE
  8
0
 10
286.839424
 20
60.330824
 30
0.0
 11
289.18405
 21
55.117341
 31
0.0
  0
LINE
  8
0
 10
289.18405
 20
55.117341
 30
0.0
 11
290.045056
 21
42.459144
 31
0.0
  0
INSERT
  8
0
  2
*X2
 10
-10.025655
 20
199.809192
 30
0.0
  0
LINE
  8
0
 10
241.365564
 20
22.865002
 30
0.0
 11
238.365564
 21
22.865002
 31
0.0
  0
ARC
  8
0
 10
237.365564
 20
12.865002
 30
0.0
 40
10.0
 50
95.73917
 51
264.26083
  0
LINE
  8
0
 10
310.206654
 20
21.865002
 30
0.0
 11
237.365567
 21
21.865002
 31
0.0
  0
ARC
  8
0
 10
237.365564
 20
12.865002
 30
0.0
 40
9.0
 50
89.999988
 51
270.000012
  0
LINE
  8
0
 10
238.365564
 20
22.065002
 30
0.0
 11
236.365564
 21
22.065002
 31
0.0
  0
LINE
  8
0
 10
243.365564
 20
22.065002
 30
0.0
 11
241.365564
 21
22.065002
 31
0.0
  0
LINE
  8
0
 10
243.365564
 20
22.865002
 30
0.0
 11
243.365564
 21
22.065002
 31
0.0
  0
LINE
  8
0
 10
246.365564
 20
22.865002
 30
0.0
 11
243.365564
 21
22.865002
 31
0.0
  0
LINE
  8
0
 10
246.365564
 20
22.865002
 30
0.0
 11
246.365564
 21
22.065002
 31
0.0
  0
LINE
  8
0
 10
248.365564
 20
22.065002
 30
0.0
 11
246.365564
 21
22.065002
 31
0.0
  0
LINE
  8
0
 10
248.365564
 20
22.865002
 30
0.0
 11
248.365564
 21
22.065002
 31
0.0
  0
LINE
  8
0
 10
251.365564
 20
22.865002
 30
0.0
 11
248.365564
 21
22.865002
 31
0.0
  0
LINE
  8
0
 10
251.365564
 20
22.865002
 30
0.0
 11
251.365564
 21
22.065002
 31
0.0
  0
LINE
  8
0
 10
253.365564
 20
22.065002
 30
0.0
 11
251.365564
 21
22.065002
 31
0.0
  0
LINE
  8
0
 10
253.365564
 20
22.865002
 30
0.0
 11
253.365564
 21
22.065002
 31
0.0
  0
LINE
  8
0
 10
256.365564
 20
22.865002
 30
0.0
 11
253.365564
 21
22.865002
 31
0.0
  0
LINE
  8
0
 10
256.365564
 20
22.865002
 30
0.0
 11
256.365564
 21
22.065002
 31
0.0
  0
LINE
  8
0
 10
258.365564
 20
22.065002
 30
0.0
 11
256.365564
 21
22.065002
 31
0.0
  0
LINE
  8
0
 10
258.365564
 20
22.865002
 30
0.0
 11
258.365564
 21
22.065002
 31
0.0
  0
LINE
  8
0
 10
261.365564
 20
22.865002
 30
0.0
 11
258.365564
 21
22.865002
 31
0.0
  0
LINE
  8
0
 10
261.365564
 20
22.865002
 30
0.0
 11
261.365564
 21
22.065002
 31
0.0
  0
LINE
  8
0
 10
263.365564
 20
22.065002
 30
0.0
 11
261.365564
 21
22.065002
 31
0.0
  0
LINE
  8
0
 10
263.365564
 20
22.865002
 30
0.0
 11
263.365564
 21
22.065002
 31
0.0
  0
LINE
  8
0
 10
266.365564
 20
22.865002
 30
0.0
 11
263.365564
 21
22.865002
 31
0.0
  0
LINE
  8
0
 10
266.365564
 20
22.865002
 30
0.0
 11
266.365564
 21
22.065002
 31
0.0
  0
LINE
  8
0
 10
268.365564
 20
22.065002
 30
0.0
 11
266.365564
 21
22.065002
 31
0.0
  0
LINE
  8
0
 10
268.365564
 20
22.865002
 30
0.0
 11
268.365564
 21
22.065002
 31
0.0
  0
LINE
  8
0
 10
271.365564
 20
22.865002
 30
0.0
 11
268.365564
 21
22.865002
 31
0.0
  0
LINE
  8
0
 10
271.365564
 20
22.865002
 30
0.0
 11
271.365564
 21
22.065002
 31
0.0
  0
LINE
  8
0
 10
273.365564
 20
22.065002
 30
0.0
 11
271.365564
 21
22.065002
 31
0.0
  0
LINE
  8
0
 10
273.365564
 20
22.865002
 30
0.0
 11
273.365564
 21
22.065002
 31
0.0
  0
LINE
  8
0
 10
276.365564
 20
22.865002
 30
0.0
 11
273.365564
 21
22.865002
 31
0.0
  0
LINE
  8
0
 10
276.365564
 20
22.865002
 30
0.0
 11
276.365564
 21
22.065002
 31
0.0
  0
LINE
  8
0
 10
278.365564
 20
22.065002
 30
0.0
 11
276.365564
 21
22.065002
 31
0.0
  0
LINE
  8
0
 10
278.365564
 20
22.865002
 30
0.0
 11
278.365564
 21
22.065002
 31
0.0
  0
LINE
  8
0
 10
311.686656
 20
22.865002
 30
0.0
 11
278.365564
 21
22.865002
 31
0.0
  0
LINE
  8
0
 10
311.686656
 20
2.865002
 30
0.0
 11
278.365564
 21
2.865002
 31
0.0
  0
LINE
  8
0
 10
278.365564
 20
2.865002
 30
0.0
 11
278.365564
 21
3.665002
 31
0.0
  0
LINE
  8
0
 10
278.365564
 20
3.665002
 30
0.0
 11
276.365564
 21
3.665002
 31
0.0
  0
LINE
  8
0
 10
276.365564
 20
2.865002
 30
0.0
 11
276.365564
 21
3.665002
 31
0.0
  0
LINE
  8
0
 10
276.365564
 20
2.865002
 30
0.0
 11
273.365564
 21
2.865002
 31
0.0
  0
LINE
  8
0
 10
273.365564
 20
2.865002
 30
0.0
 11
273.365564
 21
3.665002
 31
0.0
  0
LINE
  8
0
 10
273.365564
 20
3.665002
 30
0.0
 11
271.365564
 21
3.665002
 31
0.0
  0
LINE
  8
0
 10
271.365564
 20
2.865002
 30
0.0
 11
271.365564
 21
3.665002
 31
0.0
  0
LINE
  8
0
 10
271.365564
 20
2.865002
 30
0.0
 11
268.365564
 21
2.865002
 31
0.0
  0
LINE
  8
0
 10
268.365564
 20
2.865002
 30
0.0
 11
268.365564
 21
3.665002
 31
0.0
  0
LINE
  8
0
 10
268.365564
 20
3.665002
 30
0.0
 11
266.365564
 21
3.665002
 31
0.0
  0
LINE
  8
0
 10
266.365564
 20
2.865002
 30
0.0
 11
266.365564
 21
3.665002
 31
0.0
  0
LINE
  8
0
 10
266.365564
 20
2.865002
 30
0.0
 11
263.365564
 21
2.865002
 31
0.0
  0
LINE
  8
0
 10
263.365564
 20
2.865002
 30
0.0
 11
263.365564
 21
3.665002
 31
0.0
  0
LINE
  8
0
 10
263.365564
 20
3.665002
 30
0.0
 11
261.365564
 21
3.665002
 31
0.0
  0
LINE
  8
0
 10
261.365564
 20
2.865002
 30
0.0
 11
261.365564
 21
3.665002
 31
0.0
  0
LINE
  8
0
 10
261.365564
 20
2.865002
 30
0.0
 11
258.365564
 21
2.865002
 31
0.0
  0
LINE
  8
0
 10
258.365564
 20
2.865002
 30
0.0
 11
258.365564
 21
3.665002
 31
0.0
  0
LINE
  8
0
 10
258.365564
 20
3.665002
 30
0.0
 11
256.365564
 21
3.665002
 31
0.0
  0
LINE
  8
0
 10
256.365564
 20
2.865002
 30
0.0
 11
256.365564
 21
3.665002
 31
0.0
  0
LINE
  8
0
 10
256.365564
 20
2.865002
 30
0.0
 11
253.365564
 21
2.865002
 31
0.0
  0
LINE
  8
0
 10
253.365564
 20
2.865002
 30
0.0
 11
253.365564
 21
3.665002
 31
0.0
  0
LINE
  8
0
 10
253.365564
 20
3.665002
 30
0.0
 11
251.365564
 21
3.665002
 31
0.0
  0
LINE
  8
0
 10
251.365564
 20
2.865002
 30
0.0
 11
251.365564
 21
3.665002
 31
0.0
  0
LINE
  8
0
 10
251.365564
 20
2.865002
 30
0.0
 11
248.365564
 21
2.865002
 31
0.0
  0
LINE
  8
0
 10
248.365564
 20
2.865002
 30
0.0
 11
248.365564
 21
3.665002
 31
0.0
  0
LINE
  8
0
 10
248.365564
 20
3.665002
 30
0.0
 11
246.365564
 21
3.665002
 31
0.0
  0
LINE
  8
0
 10
246.365564
 20
2.865002
 30
0.0
 11
246.365564
 21
3.665002
 31
0.0
  0
LINE
  8
0
 10
246.365564
 20
2.865002
 30
0.0
 11
243.365564
 21
2.865002
 31
0.0
  0
LINE
  8
0
 10
243.365564
 20
2.865002
 30
0.0
 11
243.365564
 21
3.665002
 31
0.0
  0
LINE
  8
0
 10
243.365564
 20
3.665002
 30
0.0
 11
241.365564
 21
3.665002
 31
0.0
  0
LINE
  8
0
 10
238.365564
 20
3.665002
 30
0.0
 11
236.365564
 21
3.665002
 31
0.0
  0
LINE
  8
0
 10
310.206654
 20
3.865002
 30
0.0
 11
237.365567
 21
3.865002
 31
0.0
  0
LINE
  8
0
 10
241.365564
 20
2.865002
 30
0.0
 11
238.365564
 21
2.865002
 31
0.0
  0
LINE
  8
0
 10
241.365564
 20
2.865002
 30
0.0
 11
241.365564
 21
3.665002
 31
0.0
  0
LINE
  8
0
 10
238.365564
 20
2.865002
 30
0.0
 11
238.365564
 21
3.665002
 31
0.0
  0
LINE
  8
0
 10
236.365564
 20
2.915128
 30
0.0
 11
236.365564
 21
3.665002
 31
0.0
  0
LINE
  8
0
 10
278.365564
 20
67.459144
 30
0.0
 11
278.365564
 21
64.241931
 31
0.0
  0
LINE
  8
0
 10
276.365564
 20
67.459144
 30
0.0
 11
276.365564
 21
42.459144
 31
0.0
  0
LINE
  8
0
 10
273.365564
 20
67.459144
 30
0.0
 11
273.365564
 21
42.459144
 31
0.0
  0
LINE
  8
0
 10
271.365564
 20
67.459144
 30
0.0
 11
271.365564
 21
42.459144
 31
0.0
  0
LINE
  8
0
 10
268.365564
 20
67.459144
 30
0.0
 11
268.365564
 21
42.459144
 31
0.0
  0
LINE
  8
0
 10
266.365564
 20
67.459144
 30
0.0
 11
266.365564
 21
42.459144
 31
0.0
  0
LINE
  8
0
 10
263.365564
 20
67.459144
 30
0.0
 11
263.365564
 21
42.459144
 31
0.0
  0
LINE
  8
0
 10
261.365564
 20
67.459144
 30
0.0
 11
261.365564
 21
42.459144
 31
0.0
  0
LINE
  8
0
 10
258.365564
 20
67.459144
 30
0.0
 11
258.365564
 21
42.459144
 31
0.0
  0
LINE
  8
0
 10
256.365564
 20
67.459144
 30
0.0
 11
256.365564
 21
42.459144
 31
0.0
  0
LINE
  8
0
 10
253.365564
 20
67.459144
 30
0.0
 11
253.365564
 21
42.459144
 31
0.0
  0
LINE
  8
0
 10
251.365564
 20
67.459144
 30
0.0
 11
251.365564
 21
42.459144
 31
0.0
  0
LINE
  8
0
 10
248.365564
 20
67.459144
 30
0.0
 11
248.365564
 21
42.459144
 31
0.0
  0
LINE
  8
0
 10
246.365564
 20
67.459144
 30
0.0
 11
246.365564
 21
42.459144
 31
0.0
  0
LINE
  8
0
 10
243.365564
 20
67.459144
 30
0.0
 11
243.365564
 21
42.459144
 31
0.0
  0
LINE
  8
0
 10
241.365564
 20
67.459144
 30
0.0
 11
241.365564
 21
42.459144
 31
0.0
  0
LINE
  8
0
 10
238.365564
 20
67.459144
 30
0.0
 11
238.365564
 21
42.459144
 31
0.0
  0
LINE
  8
0
 10
236.365564
 20
67.459144
 30
0.0
 11
236.365564
 21
42.459144
 31
0.0
  0
LINE
  8
0
 10
305.865564
 20
96.959144
 30
0.0
 11
328.865564
 21
96.959144
 31
0.0
  0
LINE
  8
0
 10
186.214728
 20
96.959144
 30
0.0
 11
209.214728
 21
96.959144
 31
0.0
  0
LINE
  8
0
 10
206.714728
 20
67.459144
 30
0.0
 11
207.714728
 21
66.459144
 31
0.0
  0
LINE
  8
0
 10
207.714728
 20
66.459144
 30
0.0
 11
207.714728
 21
42.459144
 31
0.0
  0
LINE
  8
0
 10
191.214728
 20
67.459144
 30
0.0
 11
191.214728
 21
69.959144
 31
0.0
  0
LINE
  8
0
 10
188.214728
 20
69.959144
 30
0.0
 11
207.214728
 21
69.959144
 31
0.0
  0
ARC
  8
0
 10
205.714728
 20
130.677561
 30
0.0
 40
3.5
 50
0.0
 51
78.840063
  0
ARC
  8
0
 10
189.714728
 20
130.677561
 30
0.0
 40
3.5
 50
101.159937
 51
180.0
  0
ARC
  8
0
 10
197.714728
 20
90.125811
 30
0.0
 40
44.833333
 50
78.840063
 51
101.159937
  0
LINE
  8
0
 10
204.214728
 20
67.459144
 30
0.0
 11
204.214728
 21
69.959144
 31
0.0
  0
LINE
  8
0
 10
209.214728
 20
96.959144
 30
0.0
 11
209.214728
 21
130.677561
 31
0.0
  0
LINE
  8
0
 10
207.214728
 20
69.959144
 30
0.0
 11
209.214728
 21
96.959144
 31
0.0
  0
LINE
  8
0
 10
186.214728
 20
96.959144
 30
0.0
 11
186.214728
 21
130.677561
 31
0.0
  0
LINE
  8
0
 10
188.214728
 20
69.959144
 30
0.0
 11
186.214728
 21
96.959144
 31
0.0
  0
LINE
  8
0
 10
187.714728
 20
66.459144
 30
0.0
 11
207.714728
 21
66.459144
 31
0.0
  0
LINE
  8
0
 10
188.714728
 20
67.459144
 30
0.0
 11
206.714728
 21
67.459144
 31
0.0
  0
LINE
  8
0
 10
188.714728
 20
67.459144
 30
0.0
 11
187.714728
 21
66.459144
 31
0.0
  0
LINE
  8
0
 10
187.714728
 20
66.459144
 30
0.0
 11
187.714728
 21
42.459144
 31
0.0
  0
LINE
  8
0
 10
187.714728
 20
42.459144
 30
0.0
 11
207.714728
 21
42.459144
 31
0.0
  0
ARC
  8
0
 10
197.714728
 20
32.459144
 30
0.0
 40
20.0
 50
60.0
 51
120.0
  0
ARC
  8
0
 10
35.650131
 20
32.459144
 30
0.0
 40
18.0
 50
60.0
 51
120.0
  0
ARC
  8
0
 10
-105.640521
 20
32.459144
 30
0.0
 40
17.0
 50
60.0
 51
120.0
  0
ENDSEC
  0
EOF
