  0
SECTION
  2
HEADER
  9
$ACADVER
  1
AC1009
  9
$INSBASE
 10
0.0
 20
0.0
 30
0.0
  9
$EXTMIN
 10
-107.489355
 20
-106.812718
 30
0.0
  9
$EXTMAX
 10
271.05466
 20
123.581394
 30
0.0
  9
$LIMMIN
 10
0.0
 20
0.0
  9
$LIMMAX
 10
12.0
 20
9.0
  9
$ORTHOMODE
 70
     1
  9
$REGENMODE
 70
     1
  9
$FILLMODE
 70
     1
  9
$QTEXTMODE
 70
     0
  9
$MIRRTEXT
 70
     1
  9
$DRAGMODE
 70
     2
  9
$LTSCALE
 40
7.0
  9
$OSMODE
 70
     0
  9
$ATTMODE
 70
     1
  9
$TEXTSIZE
 40
0.2
  9
$TRACEWID
 40
0.05
  9
$TEXTSTYLE
  7
STANDARD
  9
$CLAYER
  8
0
  9
$CELTYPE
  6
BYLAYER
  9
$CECOLOR
 62
   256
  9
$DIMSCALE
 40
1.0
  9
$DIMASZ
 40
2.5
  9
$DIMEXO
 40
0.0
  9
$DIMDLI
 40
5.0
  9
$DIMRND
 40
0.0
  9
$DIMDLE
 40
0.0
  9
$DIMEXE
 40
1.0
  9
$DIMTP
 40
0.0
  9
$DIMTM
 40
0.0
  9
$DIMTXT
 40
2.5
  9
$DIMCEN
 40
0.09
  9
$DIMTSZ
 40
0.0
  9
$DIMTOL
 70
     0
  9
$DIMLIM
 70
     0
  9
$DIMTIH
 70
     0
  9
$DIMTOH
 70
     0
  9
$DIMSE1
 70
     0
  9
$DIMSE2
 70
     0
  9
$DIMTAD
 70
     1
  9
$DIMZIN
 70
     0
  9
$DIMBLK
  1

  9
$DIMASO
 70
     0
  9
$DIMSHO
 70
     0
  9
$DIMPOST
  1

  9
$DIMAPOST
  1

  9
$DIMALT
 70
     0
  9
$DIMALTD
 70
     2
  9
$DIMALTF
 40
25.4
  9
$DIMLFAC
 40
1.0
  9
$DIMTOFL
 70
     1
  9
$DIMTVP
 40
0.0
  9
$DIMTIX
 70
     0
  9
$DIMSOXD
 70
     0
  9
$DIMSAH
 70
     0
  9
$DIMBLK1
  1

  9
$DIMBLK2
  1

  9
$DIMSTYLE
  2
*UNNAMED
  9
$DIMCLRD
 70
     0
  9
$DIMCLRE
 70
     0
  9
$DIMCLRT
 70
     0
  9
$DIMTFAC
 40
1.0
  9
$DIMGAP
 40
0.09
  9
$LUNITS
 70
     2
  9
$LUPREC
 70
     4
  9
$SKETCHINC
 40
0.1
  9
$FILLETRAD
 40
0.0
  9
$AUNITS
 70
     0
  9
$AUPREC
 70
     0
  9
$MENU
  1
wiberger
  9
$ELEVATION
 40
0.0
  9
$PELEVATION
 40
0.0
  9
$THICKNESS
 40
0.0
  9
$LIMCHECK
 70
     0
  9
$BLIPMODE
 70
     1
  9
$CHAMFERA
 40
0.0
  9
$CHAMFERB
 40
0.0
  9
$SKPOLY
 70
     0
  9
$TDCREATE
 40
2450211.360028240
  9
$TDUPDATE
 40
2450211.526872685
  9
$TDINDWG
 40
0.0002726852
  9
$TDUSRTIMER
 40
0.0002726852
  9
$USRTIMER
 70
     1
  9
$ANGBASE
 50
0.0
  9
$ANGDIR
 70
     0
  9
$PDMODE
 70
     0
  9
$PDSIZE
 40
0.0
  9
$PLINEWID
 40
0.0
  9
$COORDS
 70
     0
  9
$SPLFRAME
 70
     0
  9
$SPLINETYPE
 70
     6
  9
$SPLINESEGS
 70
     8
  9
$ATTDIA
 70
     0
  9
$ATTREQ
 70
     1
  9
$HANDLING
 70
     0
  9
$HANDSEED
  5
0
  9
$SURFTAB1
 70
     6
  9
$SURFTAB2
 70
     6
  9
$SURFTYPE
 70
     6
  9
$SURFU
 70
     6
  9
$SURFV
 70
     6
  9
$UCSNAME
  2

  9
$UCSORG
 10
0.0
 20
0.0
 30
0.0
  9
$UCSXDIR
 10
1.0
 20
0.0
 30
0.0
  9
$UCSYDIR
 10
0.0
 20
1.0
 30
0.0
  9
$PUCSNAME
  2

  9
$PUCSORG
 10
0.0
 20
0.0
 30
0.0
  9
$PUCSXDIR
 10
1.0
 20
0.0
 30
0.0
  9
$PUCSYDIR
 10
0.0
 20
1.0
 30
0.0
  9
$USERI1
 70
     0
  9
$USERI2
 70
     0
  9
$USERI3
 70
     0
  9
$USERI4
 70
     0
  9
$USERI5
 70
     0
  9
$USERR1
 40
0.0
  9
$USERR2
 40
0.0
  9
$USERR3
 40
0.0
  9
$USERR4
 40
0.0
  9
$USERR5
 40
0.0
  9
$WORLDVIEW
 70
     1
  9
$SHADEDGE
 70
     3
  9
$SHADEDIF
 70
    70
  9
$TILEMODE
 70
     1
  9
$MAXACTVP
 70
    16
  9
$PINSBASE
 10
0.0
 20
0.0
 30
0.0
  9
$PLIMCHECK
 70
     0
  9
$PEXTMIN
 10
1.000000E+20
 20
1.000000E+20
 30
1.000000E+20
  9
$PEXTMAX
 10
-1.000000E+20
 20
-1.000000E+20
 30
-1.000000E+20
  9
$PLIMMIN
 10
0.0
 20
0.0
  9
$PLIMMAX
 10
12.0
 20
9.0
  9
$UNITMODE
 70
     0
  9
$VISRETAIN
 70
     0
  9
$PLINEGEN
 70
     0
  9
$PSLTSCALE
 70
     0
  9
$TREEDEPTH
 70
  3020
  9
$DWGCODEPAGE
  3
undefined
  0
ENDSEC
  0
SECTION
  2
TABLES
  0
TABLE
  2
VPORT
 70
     2
  0
VPORT
  2
*ACTIVE
 70
     0
 10
0.0
 20
0.0
 11
1.0
 21
1.0
 12
139.397533
 22
1.050087
 13
0.0
 23
0.0
 14
1.0
 24
1.0
 15
0.0
 25
0.0
 16
0.0
 26
0.0
 36
1.0
 17
0.0
 27
0.0
 37
0.0
 40
303.15819
 41
1.767507
 42
50.0
 43
0.0
 44
0.0
 50
0.0
 51
0.0
 71
     0
 72
   100
 73
     1
 74
     0
 75
     0
 76
     0
 77
     0
 78
     0
  0
ENDTAB
  0
TABLE
  2
LTYPE
 70
     4
  0
LTYPE
  2
CONTINUOUS
 70
    64
  3
Solid line
 72
    65
 73
     0
 40
0.0
  0
LTYPE
  2
DASHED
 70
     0
  3
__ __ __ __ __ __ __ __ __ __ __ __ __ __ __
 72
    65
 73
     2
 40
0.75
 49
0.5
 49
-0.25
  0
LTYPE
  2
HIDDEN
 70
     0
  3
_ _ _ _ _ _ _ _ _ _ _ _ _ _ _ _ _ _ _ _ _ _ _
 72
    65
 73
     2
 40
0.375
 49
0.25
 49
-0.125
  0
LTYPE
  2
CENTER
 70
    64
  3
____ _ ____ _ ____ _ ____ _ ____ _ ____ _ ____
 72
    65
 73
     4
 40
2.0
 49
1.25
 49
-0.25
 49
0.25
 49
-0.25
  0
ENDTAB
  0
TABLE
  2
LAYER
 70
     1
  0
LAYER
  2
0
 70
    64
 62
     7
  6
CONTINUOUS
  0
ENDTAB
  0
TABLE
  2
STYLE
 70
     1
  0
STYLE
  2
STANDARD
 70
     0
 40
0.0
 41
1.0
 50
0.0
 71
     0
 42
0.2
  3
txt
  4

  0
ENDTAB
  0
TABLE
  2
VIEW
 70
     0
  0
ENDTAB
  0
TABLE
  2
UCS
 70
     0
  0
ENDTAB
  0
TABLE
  2
APPID
 70
     1
  0
APPID
  2
ACAD
 70
    64
  0
ENDTAB
  0
TABLE
  2
DIMSTYLE
 70
     0
  0
ENDTAB
  0
ENDSEC
  0
SECTION
  2
BLOCKS
  0
BLOCK
  8
0
  2
*X0
 70
    65
 10
0.0
 20
0.0
 30
0.0
  3
*X
  0
LINE
  8
0
 62
     0
 10
466.909014
 20
5.875392
 30
0.0
 11
469.05077
 21
8.017148
 31
0.0
  0
LINE
  8
0
 62
     0
 10
467.056726
 20
7.437318
 30
0.0
 11
469.05077
 21
9.431362
 31
0.0
  0
LINE
  8
0
 62
     0
 10
467.204438
 20
8.999244
 30
0.0
 11
469.778335
 21
11.573141
 31
0.0
  0
LINE
  8
0
 62
     0
 10
467.35215
 20
10.561169
 30
0.0
 11
469.778335
 21
12.987354
 31
0.0
  0
LINE
  8
0
 62
     0
 10
467.499862
 20
12.123095
 30
0.0
 11
469.50077
 21
14.124002
 31
0.0
  0
LINE
  8
0
 62
     0
 10
466.761301
 20
4.313467
 30
0.0
 11
469.05077
 21
6.602935
 31
0.0
  0
LINE
  8
0
 62
     0
 10
467.210442
 20
3.348393
 30
0.0
 11
469.05077
 21
5.188721
 31
0.0
  0
LINE
  8
0
 62
     0
 10
467.40077
 20
2.124508
 30
0.0
 11
469.05077
 21
3.774508
 31
0.0
  0
LINE
  8
0
 62
     0
 10
467.40077
 20
0.710294
 30
0.0
 11
469.05077
 21
2.360294
 31
0.0
  0
LINE
  8
0
 62
     0
 10
467.40077
 20
-0.70392
 30
0.0
 11
469.05077
 21
0.94608
 31
0.0
  0
LINE
  8
0
 62
     0
 10
467.685354
 20
-1.833549
 30
0.0
 11
469.05077
 21
-0.468133
 31
0.0
  0
ENDBLK
  8
0
  0
BLOCK
  8
0
  2
*X1
 70
    65
 10
0.0
 20
0.0
 30
0.0
  3
*X
  0
LINE
  8
0
 62
     0
 10
271.798606
 20
25.725446
 30
0.0
 11
274.601348
 21
28.528188
 31
0.0
  0
LINE
  8
0
 62
     0
 10
271.92583
 20
27.266884
 30
0.0
 11
274.601348
 21
29.942401
 31
0.0
  0
LINE
  8
0
 62
     0
 10
272.053055
 20
28.808322
 30
0.0
 11
274.601348
 21
31.356615
 31
0.0
  0
LINE
  8
0
 62
     0
 10
275.226803
 20
31.98207
 30
0.0
 11
275.651348
 21
32.406615
 31
0.0
  0
LINE
  8
0
 62
     0
 10
272.180279
 20
30.34976
 30
0.0
 11
275.651348
 21
33.820828
 31
0.0
  0
LINE
  8
0
 62
     0
 10
272.307503
 20
31.891198
 30
0.0
 11
275.651348
 21
35.235042
 31
0.0
  0
LINE
  8
0
 62
     0
 10
272.434728
 20
33.432636
 30
0.0
 11
274.350499
 21
35.348407
 31
0.0
  0
LINE
  8
0
 62
     0
 10
271.671382
 20
24.184008
 30
0.0
 11
274.601348
 21
27.113974
 31
0.0
  0
LINE
  8
0
 62
     0
 10
271.544157
 20
22.64257
 30
0.0
 11
274.601348
 21
25.699761
 31
0.0
  0
LINE
  8
0
 62
     0
 10
272.074407
 20
21.758607
 30
0.0
 11
274.601348
 21
24.285547
 31
0.0
  0
LINE
  8
0
 62
     0
 10
272.451348
 20
20.721334
 30
0.0
 11
274.601348
 21
22.871334
 31
0.0
  0
LINE
  8
0
 62
     0
 10
272.456275
 20
19.312047
 30
0.0
 11
274.601348
 21
21.45712
 31
0.0
  0
LINE
  8
0
 62
     0
 10
273.440511
 20
18.88207
 30
0.0
 11
274.601348
 21
20.042906
 31
0.0
  0
ENDBLK
  8
0
  0
BLOCK
  8
0
  2
*X2
 70
    65
 10
0.0
 20
0.0
 30
0.0
  3
*X
  0
LINE
  8
0
 62
     0
 10
-17.095049
 20
-83.563087
 30
0.0
 11
-13.542274
 21
-80.010312
 31
0.0
  0
LINE
  8
0
 62
     0
 10
-16.919424
 20
-81.973248
 30
0.0
 11
-13.542274
 21
-78.596098
 31
0.0
  0
LINE
  8
0
 62
     0
 10
-16.743799
 20
-80.38341
 30
0.0
 11
-13.542274
 21
-77.181884
 31
0.0
  0
LINE
  8
0
 62
     0
 10
-16.568174
 20
-78.793571
 30
0.0
 11
-13.542274
 21
-75.767671
 31
0.0
  0
LINE
  8
0
 62
     0
 10
-16.392549
 20
-77.203732
 30
0.0
 11
-13.542274
 21
-74.353457
 31
0.0
  0
LINE
  8
0
 62
     0
 10
-16.216924
 20
-75.613894
 30
0.0
 11
-12.992274
 21
-72.389244
 31
0.0
  0
LINE
  8
0
 62
     0
 10
-16.041299
 20
-74.024055
 30
0.0
 11
-14.032528
 21
-72.015284
 31
0.0
  0
LINE
  8
0
 62
     0
 10
-17.270674
 20
-85.152925
 30
0.0
 11
-13.542274
 21
-81.424525
 31
0.0
  0
LINE
  8
0
 62
     0
 10
-17.4463
 20
-86.742764
 30
0.0
 11
-13.542274
 21
-82.838739
 31
0.0
  0
LINE
  8
0
 62
     0
 10
-16.541177
 20
-87.251856
 30
0.0
 11
-13.542274
 21
-84.252952
 31
0.0
  0
LINE
  8
0
 62
     0
 10
-16.442274
 20
-88.567166
 30
0.0
 11
-13.542274
 21
-85.667166
 31
0.0
  0
LINE
  8
0
 62
     0
 10
-16.442274
 20
-89.981379
 30
0.0
 11
-13.542274
 21
-87.081379
 31
0.0
  0
LINE
  8
0
 62
     0
 10
-16.442274
 20
-91.395593
 30
0.0
 11
-13.542274
 21
-88.495593
 31
0.0
  0
LINE
  8
0
 62
     0
 10
-16.412897
 20
-92.78043
 30
0.0
 11
-13.542274
 21
-89.909806
 31
0.0
  0
LINE
  8
0
 62
     0
 10
-15.329824
 20
-93.11157
 30
0.0
 11
-13.542274
 21
-91.32402
 31
0.0
  0
LINE
  8
0
 62
     0
 10
-13.91561
 20
-93.11157
 30
0.0
 11
-13.542274
 21
-92.738234
 31
0.0
  0
ENDBLK
  8
0
  0
BLOCK
  8
0
  2
*X3
 70
    65
 10
0.0
 20
0.0
 30
0.0
  3
*X
  0
LINE
  8
0
 62
     0
 10
209.059717
 20
-75.197209
 30
0.0
 11
212.460475
 21
-71.796451
 31
0.0
  0
LINE
  8
0
 62
     0
 10
209.188102
 20
-73.654611
 30
0.0
 11
212.460475
 21
-70.382237
 31
0.0
  0
LINE
  8
0
 62
     0
 10
209.316487
 20
-72.112012
 30
0.0
 11
212.460475
 21
-68.968024
 31
0.0
  0
LINE
  8
0
 62
     0
 10
209.444872
 20
-70.569414
 30
0.0
 11
212.460475
 21
-67.55381
 31
0.0
  0
LINE
  8
0
 62
     0
 10
212.618479
 20
-67.395806
 30
0.0
 11
213.660475
 21
-66.35381
 31
0.0
  0
LINE
  8
0
 62
     0
 10
209.573257
 20
-69.026815
 30
0.0
 11
213.660475
 21
-64.939597
 31
0.0
  0
LINE
  8
0
 62
     0
 10
209.701642
 20
-67.484217
 30
0.0
 11
213.590052
 21
-63.595806
 31
0.0
  0
LINE
  8
0
 62
     0
 10
209.830027
 20
-65.941618
 30
0.0
 11
212.960475
 21
-62.81117
 31
0.0
  0
LINE
  8
0
 62
     0
 10
209.958417
 20
-64.399014
 30
0.0
 11
211.589555
 21
-62.767876
 31
0.0
  0
LINE
  8
0
 62
     0
 10
208.931332
 20
-76.739808
 30
0.0
 11
212.460475
 21
-73.210665
 31
0.0
  0
LINE
  8
0
 62
     0
 10
208.802947
 20
-78.282406
 30
0.0
 11
212.460475
 21
-74.624878
 31
0.0
  0
LINE
  8
0
 62
     0
 10
208.674562
 20
-79.825005
 30
0.0
 11
212.460475
 21
-76.039092
 31
0.0
  0
LINE
  8
0
 62
     0
 10
209.024238
 20
-80.889542
 30
0.0
 11
212.460475
 21
-77.453305
 31
0.0
  0
LINE
  8
0
 62
     0
 10
209.560475
 20
-81.767519
 30
0.0
 11
212.460475
 21
-78.867519
 31
0.0
  0
LINE
  8
0
 62
     0
 10
209.560475
 20
-83.181732
 30
0.0
 11
212.460475
 21
-80.281732
 31
0.0
  0
LINE
  8
0
 62
     0
 10
209.649081
 20
-84.50734
 30
0.0
 11
212.460475
 21
-81.695946
 31
0.0
  0
LINE
  8
0
 62
     0
 10
210.478218
 20
-85.092417
 30
0.0
 11
212.460475
 21
-83.11016
 31
0.0
  0
LINE
  8
0
 62
     0
 10
211.889042
 20
-85.095806
 30
0.0
 11
212.460475
 21
-84.524373
 31
0.0
  0
ENDBLK
  8
0
  0
BLOCK
  8
0
  2
*X4
 70
    65
 10
0.0
 20
0.0
 30
0.0
  3
*X
  0
LINE
  8
0
 62
     0
 10
6.692682
 20
-286.049526
 30
0.0
 11
10.336141
 21
-282.406067
 31
0.0
  0
LINE
  8
0
 62
     0
 10
6.901241
 20
-283.719646
 30
0.0
 11
10.336141
 21
-280.284747
 31
0.0
  0
LINE
  8
0
 62
     0
 10
7.1098
 20
-281.389767
 30
0.0
 11
10.336141
 21
-278.163426
 31
0.0
  0
LINE
  8
0
 62
     0
 10
10.965604
 20
-277.533963
 30
0.0
 11
11.764509
 21
-276.735057
 31
0.0
  0
LINE
  8
0
 62
     0
 10
7.318358
 20
-279.059888
 30
0.0
 11
11.764509
 21
-274.613737
 31
0.0
  0
LINE
  8
0
 62
     0
 10
7.526917
 20
-276.730009
 30
0.0
 11
11.186141
 21
-273.070786
 31
0.0
  0
LINE
  8
0
 62
     0
 10
7.735476
 20
-274.40013
 30
0.0
 11
10.152924
 21
-271.982682
 31
0.0
  0
LINE
  8
0
 62
     0
 10
6.484123
 20
-288.379405
 30
0.0
 11
10.336141
 21
-284.527387
 31
0.0
  0
LINE
  8
0
 62
     0
 10
6.275564
 20
-290.709284
 30
0.0
 11
10.336141
 21
-286.648708
 31
0.0
  0
LINE
  8
0
 62
     0
 10
6.076123
 20
-293.030045
 30
0.0
 11
10.336141
 21
-288.770028
 31
0.0
  0
LINE
  8
0
 62
     0
 10
6.955384
 20
-294.272105
 30
0.0
 11
10.336141
 21
-290.891348
 31
0.0
  0
LINE
  8
0
 62
     0
 10
7.000371
 20
-296.348438
 30
0.0
 11
10.336141
 21
-293.012669
 31
0.0
  0
LINE
  8
0
 62
     0
 10
7.045534
 20
-298.424595
 30
0.0
 11
10.336141
 21
-295.133989
 31
0.0
  0
LINE
  8
0
 62
     0
 10
8.207487
 20
-299.383963
 30
0.0
 11
10.336141
 21
-297.255309
 31
0.0
  0
LINE
  8
0
 62
     0
 10
10.328808
 20
-299.383963
 30
0.0
 11
10.336141
 21
-299.37663
 31
0.0
  0
ENDBLK
  8
0
  0
BLOCK
  8
0
  2
*X5
 70
    65
 10
0.0
 20
0.0
 30
0.0
  3
*X
  0
LINE
  8
0
 62
     0
 10
-101.851979
 20
82.052989
 30
0.0
 11
-103.851979
 21
84.052989
 31
0.0
  0
LINE
  8
0
 62
     0
 10
-101.851979
 20
80.638775
 30
0.0
 11
-103.851979
 21
82.638775
 31
0.0
  0
LINE
  8
0
 62
     0
 10
-101.851979
 20
79.224562
 30
0.0
 11
-104.851979
 21
82.224562
 31
0.0
  0
LINE
  8
0
 62
     0
 10
-101.851979
 20
77.810348
 30
0.0
 11
-104.851979
 21
80.810348
 31
0.0
  0
LINE
  8
0
 62
     0
 10
-101.851979
 20
76.396134
 30
0.0
 11
-104.851979
 21
79.396134
 31
0.0
  0
LINE
  8
0
 62
     0
 10
-101.851979
 20
74.981921
 30
0.0
 11
-104.851979
 21
77.981921
 31
0.0
  0
LINE
  8
0
 62
     0
 10
-101.87409
 20
73.589819
 30
0.0
 11
-104.851979
 21
76.567707
 31
0.0
  0
LINE
  8
0
 62
     0
 10
-102.810416
 20
73.111931
 30
0.0
 11
-104.851979
 21
75.153494
 31
0.0
  0
LINE
  8
0
 62
     0
 10
-104.224629
 20
73.111931
 30
0.0
 11
-104.851979
 21
73.73928
 31
0.0
  0
LINE
  8
0
 62
     0
 10
-101.851979
 20
83.467202
 30
0.0
 11
-103.674343
 21
85.289567
 31
0.0
  0
LINE
  8
0
 62
     0
 10
-101.851979
 20
84.881416
 30
0.0
 11
-103.301979
 21
86.331416
 31
0.0
  0
LINE
  8
0
 62
     0
 10
-101.646604
 20
86.090255
 30
0.0
 11
-103.301979
 21
87.745629
 31
0.0
  0
LINE
  8
0
 62
     0
 10
-101.351979
 20
87.209843
 30
0.0
 11
-104.051979
 21
89.909843
 31
0.0
  0
LINE
  8
0
 62
     0
 10
-101.351979
 20
88.624057
 30
0.0
 11
-104.051979
 21
91.324057
 31
0.0
  0
LINE
  8
0
 62
     0
 10
-101.351979
 20
90.03827
 30
0.0
 11
-103.42564
 21
92.111931
 31
0.0
  0
LINE
  8
0
 62
     0
 10
-101.351979
 20
91.452484
 30
0.0
 11
-102.011426
 21
92.111931
 31
0.0
  0
ENDBLK
  8
0
  0
BLOCK
  8
0
  2
*X6
 70
    65
 10
0.0
 20
0.0
 30
0.0
  3
*X
  0
LINE
  8
0
 62
     0
 10
18.708261
 20
83.115116
 30
0.0
 11
16.508261
 21
85.315116
 31
0.0
  0
LINE
  8
0
 62
     0
 10
18.708261
 20
81.700902
 30
0.0
 11
15.358261
 21
85.050902
 31
0.0
  0
LINE
  8
0
 62
     0
 10
18.708261
 20
80.286688
 30
0.0
 11
15.358261
 21
83.636688
 31
0.0
  0
LINE
  8
0
 62
     0
 10
18.708261
 20
78.872475
 30
0.0
 11
15.358261
 21
82.222475
 31
0.0
  0
LINE
  8
0
 62
     0
 10
18.708261
 20
77.458261
 30
0.0
 11
15.358261
 21
80.808261
 31
0.0
  0
LINE
  8
0
 62
     0
 10
18.708261
 20
76.044048
 30
0.0
 11
15.358261
 21
79.394048
 31
0.0
  0
LINE
  8
0
 62
     0
 10
18.708261
 20
74.629834
 30
0.0
 11
15.358261
 21
77.979834
 31
0.0
  0
LINE
  8
0
 62
     0
 10
18.460106
 20
73.463776
 30
0.0
 11
15.358261
 21
76.565621
 31
0.0
  0
LINE
  8
0
 62
     0
 10
17.397737
 20
73.111931
 30
0.0
 11
15.358261
 21
75.151407
 31
0.0
  0
LINE
  8
0
 62
     0
 10
15.983523
 20
73.111931
 30
0.0
 11
15.358261
 21
73.737194
 31
0.0
  0
LINE
  8
0
 62
     0
 10
18.708261
 20
84.529329
 30
0.0
 11
16.508261
 21
86.729329
 31
0.0
  0
LINE
  8
0
 62
     0
 10
18.708261
 20
85.943543
 30
0.0
 11
16.624067
 21
88.027737
 31
0.0
  0
LINE
  8
0
 62
     0
 10
18.708261
 20
87.357756
 30
0.0
 11
17.258261
 21
88.807756
 31
0.0
  0
LINE
  8
0
 62
     0
 10
19.038837
 20
88.441394
 30
0.0
 11
17.258261
 21
90.22197
 31
0.0
  0
LINE
  8
0
 62
     0
 10
19.608261
 20
89.286183
 30
0.0
 11
17.258261
 21
91.636183
 31
0.0
  0
LINE
  8
0
 62
     0
 10
19.608261
 20
90.700397
 30
0.0
 11
16.408261
 21
93.900397
 31
0.0
  0
LINE
  8
0
 62
     0
 10
19.608261
 20
92.114611
 30
0.0
 11
16.408261
 21
95.314611
 31
0.0
  0
LINE
  8
0
 62
     0
 10
19.608261
 20
93.528824
 30
0.0
 11
17.525154
 21
95.611931
 31
0.0
  0
LINE
  8
0
 62
     0
 10
19.608261
 20
94.943038
 30
0.0
 11
18.939368
 21
95.611931
 31
0.0
  0
ENDBLK
  8
0
  0
BLOCK
  8
0
  2
*X7
 70
    65
 10
0.0
 20
0.0
 30
0.0
  3
*X
  0
LINE
  8
0
 62
     0
 10
160.16828
 20
84.490666
 30
0.0
 11
157.047015
 21
87.611931
 31
0.0
  0
LINE
  8
0
 62
     0
 10
160.16828
 20
83.076452
 30
0.0
 11
156.41828
 21
86.826452
 31
0.0
  0
LINE
  8
0
 62
     0
 10
160.16828
 20
81.662239
 30
0.0
 11
156.41828
 21
85.412239
 31
0.0
  0
LINE
  8
0
 62
     0
 10
160.16828
 20
80.248025
 30
0.0
 11
156.41828
 21
83.998025
 31
0.0
  0
LINE
  8
0
 62
     0
 10
160.16828
 20
78.833812
 30
0.0
 11
156.41828
 21
82.583812
 31
0.0
  0
LINE
  8
0
 62
     0
 10
160.16828
 20
77.419598
 30
0.0
 11
156.41828
 21
81.169598
 31
0.0
  0
LINE
  8
0
 62
     0
 10
160.16828
 20
76.005385
 30
0.0
 11
156.41828
 21
79.755385
 31
0.0
  0
LINE
  8
0
 62
     0
 10
160.16828
 20
74.591171
 30
0.0
 11
156.41828
 21
78.341171
 31
0.0
  0
LINE
  8
0
 62
     0
 10
159.825794
 20
73.519444
 30
0.0
 11
156.41828
 21
76.926958
 31
0.0
  0
LINE
  8
0
 62
     0
 10
158.819093
 20
73.111931
 30
0.0
 11
156.41828
 21
75.512744
 31
0.0
  0
LINE
  8
0
 62
     0
 10
157.40488
 20
73.111931
 30
0.0
 11
156.41828
 21
74.09853
 31
0.0
  0
LINE
  8
0
 62
     0
 10
160.16828
 20
85.90488
 30
0.0
 11
157.71828
 21
88.35488
 31
0.0
  0
LINE
  8
0
 62
     0
 10
160.16828
 20
87.319093
 30
0.0
 11
157.71828
 21
89.769093
 31
0.0
  0
LINE
  8
0
 62
     0
 10
160.16828
 20
88.733307
 30
0.0
 11
157.71828
 21
91.183307
 31
0.0
  0
LINE
  8
0
 62
     0
 10
160.16828
 20
90.14752
 30
0.0
 11
158.061075
 21
92.254726
 31
0.0
  0
LINE
  8
0
 62
     0
 10
160.16828
 20
91.561734
 30
0.0
 11
158.61828
 21
93.111734
 31
0.0
  0
LINE
  8
0
 62
     0
 10
160.908808
 20
92.23542
 30
0.0
 11
158.61828
 21
94.525947
 31
0.0
  0
LINE
  8
0
 62
     0
 10
161.805383
 20
92.753058
 30
0.0
 11
158.61828
 21
95.940161
 31
0.0
  0
LINE
  8
0
 62
     0
 10
158.34651
 20
96.211931
 30
0.0
 11
157.61828
 21
96.940161
 31
0.0
  0
LINE
  8
0
 62
     0
 10
161.91828
 20
94.054375
 30
0.0
 11
157.61828
 21
98.354375
 31
0.0
  0
LINE
  8
0
 62
     0
 10
161.91828
 20
95.468588
 30
0.0
 11
157.774937
 21
99.611931
 31
0.0
  0
LINE
  8
0
 62
     0
 10
161.91828
 20
96.882802
 30
0.0
 11
159.189151
 21
99.611931
 31
0.0
  0
LINE
  8
0
 62
     0
 10
161.91828
 20
98.297015
 30
0.0
 11
160.603364
 21
99.611931
 31
0.0
  0
ENDBLK
  8
0
  0
BLOCK
  8
0
  2
*X8
 70
    65
 10
0.0
 20
0.0
 30
0.0
  3
*X
  0
LINE
  8
0
 62
     0
 10
-98.998582
 20
-155.559859
 30
0.0
 11
-101.898582
 21
-152.659859
 31
0.0
  0
LINE
  8
0
 62
     0
 10
-98.998582
 20
-156.974073
 30
0.0
 11
-102.998313
 21
-152.974342
 31
0.0
  0
LINE
  8
0
 62
     0
 10
-98.998582
 20
-158.388287
 30
0.0
 11
-103.398582
 21
-153.988287
 31
0.0
  0
LINE
  8
0
 62
     0
 10
-98.998582
 20
-159.8025
 30
0.0
 11
-103.398582
 21
-155.4025
 31
0.0
  0
LINE
  8
0
 62
     0
 10
-98.998582
 20
-161.216714
 30
0.0
 11
-103.398582
 21
-156.816714
 31
0.0
  0
LINE
  8
0
 62
     0
 10
-98.998582
 20
-162.630927
 30
0.0
 11
-103.398582
 21
-158.230927
 31
0.0
  0
LINE
  8
0
 62
     0
 10
-98.998582
 20
-164.045141
 30
0.0
 11
-103.398582
 21
-159.645141
 31
0.0
  0
LINE
  8
0
 62
     0
 10
-98.998582
 20
-165.459354
 30
0.0
 11
-103.398582
 21
-161.059354
 31
0.0
  0
LINE
  8
0
 62
     0
 10
-98.998582
 20
-166.873568
 30
0.0
 11
-103.398582
 21
-162.473568
 31
0.0
  0
LINE
  8
0
 62
     0
 10
-98.998582
 20
-168.287782
 30
0.0
 11
-103.398582
 21
-163.887782
 31
0.0
  0
LINE
  8
0
 62
     0
 10
-99.112408
 20
-169.588168
 30
0.0
 11
-103.398582
 21
-165.301995
 31
0.0
  0
LINE
  8
0
 62
     0
 10
-99.819515
 20
-170.295275
 30
0.0
 11
-103.398582
 21
-166.716209
 31
0.0
  0
LINE
  8
0
 62
     0
 10
-101.154662
 20
-170.374342
 30
0.0
 11
-103.398582
 21
-168.130422
 31
0.0
  0
LINE
  8
0
 62
     0
 10
-102.568876
 20
-170.374342
 30
0.0
 11
-103.398582
 21
-169.544636
 31
0.0
  0
LINE
  8
0
 62
     0
 10
-98.998582
 20
-154.145646
 30
0.0
 11
-101.898582
 21
-151.245646
 31
0.0
  0
LINE
  8
0
 62
     0
 10
-98.998582
 20
-152.731432
 30
0.0
 11
-101.898582
 21
-149.831432
 31
0.0
  0
LINE
  8
0
 62
     0
 10
-98.998582
 20
-151.317219
 30
0.0
 11
-101.77002
 21
-148.54578
 31
0.0
  0
LINE
  8
0
 62
     0
 10
-98.998582
 20
-149.903005
 30
0.0
 11
-101.198582
 21
-147.703005
 31
0.0
  0
LINE
  8
0
 62
     0
 10
-98.998582
 20
-148.488792
 30
0.0
 11
-101.198582
 21
-146.288792
 31
0.0
  0
LINE
  8
0
 62
     0
 10
-98.521855
 20
-147.551305
 30
0.0
 11
-101.198582
 21
-144.874578
 31
0.0
  0
LINE
  8
0
 62
     0
 10
-97.62528
 20
-147.033667
 30
0.0
 11
-102.198582
 21
-142.460365
 31
0.0
  0
LINE
  8
0
 62
     0
 10
-96.728704
 20
-146.516029
 30
0.0
 11
-102.198582
 21
-141.046151
 31
0.0
  0
LINE
  8
0
 62
     0
 10
-96.398582
 20
-145.431937
 30
0.0
 11
-101.956177
 21
-139.874342
 31
0.0
  0
LINE
  8
0
 62
     0
 10
-96.398582
 20
-144.017724
 30
0.0
 11
-100.541964
 21
-139.874342
 31
0.0
  0
LINE
  8
0
 62
     0
 10
-96.398582
 20
-142.60351
 30
0.0
 11
-99.12775
 21
-139.874342
 31
0.0
  0
LINE
  8
0
 62
     0
 10
-96.398582
 20
-141.189297
 30
0.0
 11
-97.713537
 21
-139.874342
 31
0.0
  0
ENDBLK
  8
0
  0
BLOCK
  8
0
  2
*X9
 70
    65
 10
0.0
 20
0.0
 30
0.0
  3
*X
  0
LINE
  8
0
 62
     0
 10
97.021494
 20
-151.822269
 30
0.0
 11
93.673566
 21
-148.474342
 31
0.0
  0
LINE
  8
0
 62
     0
 10
97.021494
 20
-153.590036
 30
0.0
 11
92.521494
 21
-149.090036
 31
0.0
  0
LINE
  8
0
 62
     0
 10
97.021494
 20
-155.357803
 30
0.0
 11
92.521494
 21
-150.857803
 31
0.0
  0
LINE
  8
0
 62
     0
 10
97.021494
 20
-157.12557
 30
0.0
 11
92.521494
 21
-152.62557
 31
0.0
  0
LINE
  8
0
 62
     0
 10
97.021494
 20
-158.893337
 30
0.0
 11
92.521494
 21
-154.393337
 31
0.0
  0
LINE
  8
0
 62
     0
 10
97.021494
 20
-160.661104
 30
0.0
 11
92.521494
 21
-156.161104
 31
0.0
  0
LINE
  8
0
 62
     0
 10
97.021494
 20
-162.428871
 30
0.0
 11
92.521494
 21
-157.928871
 31
0.0
  0
LINE
  8
0
 62
     0
 10
97.021494
 20
-164.196638
 30
0.0
 11
92.521494
 21
-159.696638
 31
0.0
  0
LINE
  8
0
 62
     0
 10
97.021494
 20
-165.964405
 30
0.0
 11
92.521494
 21
-161.464405
 31
0.0
  0
LINE
  8
0
 62
     0
 10
97.021494
 20
-167.732172
 30
0.0
 11
92.521494
 21
-163.232172
 31
0.0
  0
LINE
  8
0
 62
     0
 10
96.958695
 20
-169.43714
 30
0.0
 11
92.521494
 21
-164.999939
 31
0.0
  0
LINE
  8
0
 62
     0
 10
96.074812
 20
-170.321024
 30
0.0
 11
92.521494
 21
-166.767706
 31
0.0
  0
LINE
  8
0
 62
     0
 10
94.360363
 20
-170.374342
 30
0.0
 11
92.521494
 21
-168.535473
 31
0.0
  0
LINE
  8
0
 62
     0
 10
97.021494
 20
-150.054502
 30
0.0
 11
94.171494
 21
-147.204502
 31
0.0
  0
LINE
  8
0
 62
     0
 10
97.021494
 20
-148.286736
 30
0.0
 11
94.171494
 21
-145.436736
 31
0.0
  0
LINE
  8
0
 62
     0
 10
97.021494
 20
-146.518969
 30
0.0
 11
94.57418
 21
-144.071655
 31
0.0
  0
LINE
  8
0
 62
     0
 10
97.021494
 20
-144.751202
 30
0.0
 11
95.458064
 21
-143.187772
 31
0.0
  0
LINE
  8
0
 62
     0
 10
97.021494
 20
-142.983435
 30
0.0
 11
95.521494
 21
-141.483435
 31
0.0
  0
LINE
  8
0
 62
     0
 10
97.501254
 20
-141.695428
 30
0.0
 11
95.521494
 21
-139.715668
 31
0.0
  0
LINE
  8
0
 62
     0
 10
98.621974
 20
-141.048381
 30
0.0
 11
94.321494
 21
-136.747901
 31
0.0
  0
LINE
  8
0
 62
     0
 10
99.742693
 20
-140.401333
 30
0.0
 11
94.321494
 21
-134.980134
 31
0.0
  0
LINE
  8
0
 62
     0
 10
100.863412
 20
-139.754285
 30
0.0
 11
94.883469
 21
-133.774342
 31
0.0
  0
LINE
  8
0
 62
     0
 10
101.521494
 20
-138.6446
 30
0.0
 11
96.651236
 21
-133.774342
 31
0.0
  0
LINE
  8
0
 62
     0
 10
101.521494
 20
-136.876833
 30
0.0
 11
98.419003
 21
-133.774342
 31
0.0
  0
LINE
  8
0
 62
     0
 10
101.521494
 20
-135.109066
 30
0.0
 11
100.18677
 21
-133.774342
 31
0.0
  0
ENDBLK
  8
0
  0
ENDSEC
  0
SECTION
  2
ENTITIES
  0
LINE
  8
0
 10
-98.751979
 20
95.811931
 30
0.0
 11
-98.751979
 21
97.111931
 31
0.0
  0
LINE
  8
0
 10
-99.951979
 20
95.811931
 30
0.0
 11
-99.951979
 21
97.111931
 31
0.0
  0
LINE
  8
0
 10
-99.951979
 20
95.811931
 30
0.0
 11
-98.751979
 21
95.811931
 31
0.0
  0
LINE
  8
0
 10
-94.351979
 20
96.111931
 30
0.0
 11
-98.751979
 21
96.111931
 31
0.0
  0
LINE
  8
0
 10
-95.351979
 20
97.111931
 30
0.0
 11
-94.351979
 21
96.111931
 31
0.0
  0
LINE
  8
0
 10
-103.351979
 20
97.111931
 30
0.0
 11
-104.351979
 21
96.111931
 31
0.0
  0
LINE
  8
0
 10
-104.351979
 20
92.111931
 30
0.0
 11
-104.351979
 21
96.111931
 31
0.0
  0
LINE
  8
0
 10
-103.351979
 20
97.111931
 30
0.0
 11
-99.951979
 21
97.111931
 31
0.0
  0
LINE
  8
0
 10
-101.851979
 20
85.971682
 30
0.0
 11
-101.351979
 21
86.260357
 31
0.0
  0
LINE
  8
0
 10
-102.351979
 20
82.111931
 30
0.0
 11
-99.351979
 21
82.111931
 31
0.0
  0
LINE
  8
0
 10
-102.351979
 20
73.111931
 30
0.0
 11
-102.351979
 21
82.111931
 31
0.0
  0
LINE
  8
0
 10
-104.501979
 20
92.111931
 30
0.0
 11
-101.001979
 21
92.111931
 31
0.0
  0
LINE
  8
0
 10
-104.351979
 20
73.111931
 30
0.0
 11
-94.351979
 21
73.111931
 31
0.0
  0
LINE
  8
0
 10
-104.851979
 20
82.611931
 30
0.0
 11
-104.851979
 21
73.611931
 31
0.0
  0
LINE
  8
0
 10
-93.851979
 20
77.111931
 30
0.0
 11
-93.851979
 21
73.611931
 31
0.0
  0
LINE
  8
0
  6
CENTER
 10
-99.351979
 20
71.521465
 30
0.0
 11
-99.351979
 21
98.109117
 31
0.0
  0
LINE
  8
0
 10
-104.851979
 20
82.611931
 30
0.0
 11
-103.851979
 21
82.611931
 31
0.0
  0
LINE
  8
0
 10
-103.851979
 20
82.611931
 30
0.0
 11
-103.851979
 21
85.111931
 31
0.0
  0
LINE
  8
0
 10
-103.301979
 20
85.661931
 30
0.0
 11
-103.301979
 21
88.611931
 31
0.0
  0
LINE
  8
0
 10
-104.051979
 20
89.361931
 30
0.0
 11
-104.051979
 21
92.111931
 31
0.0
  0
LINE
  8
0
 10
-103.301979
 20
88.611931
 30
0.0
 11
-104.051979
 21
89.361931
 31
0.0
  0
LINE
  8
0
 10
-104.351979
 20
73.111931
 30
0.0
 11
-104.851979
 21
73.611931
 31
0.0
  0
LINE
  8
0
 10
-103.851979
 20
85.111931
 30
0.0
 11
-103.301979
 21
85.661931
 31
0.0
  0
LINE
  8
0
 10
-94.351979
 20
73.111931
 30
0.0
 11
-93.851979
 21
73.611931
 31
0.0
  0
LINE
  8
0
 10
-93.851979
 20
73.611931
 30
0.0
 11
-99.351979
 21
73.611931
 31
0.0
  0
LINE
  8
0
 10
-101.001979
 20
85.111931
 30
0.0
 11
-99.351979
 21
85.111931
 31
0.0
  0
LINE
  8
0
 10
-101.351979
 20
85.461931
 30
0.0
 11
-101.351979
 21
92.111931
 31
0.0
  0
LINE
  8
0
 10
-101.001979
 20
85.111931
 30
0.0
 11
-101.001979
 21
92.111931
 31
0.0
  0
LINE
  8
0
 10
-106.101979
 20
77.111931
 30
0.0
 11
-104.851979
 21
77.111931
 31
0.0
  0
LINE
  8
0
 10
-106.601979
 20
77.611931
 30
0.0
 11
-106.601979
 21
82.411931
 31
0.0
  0
LINE
  8
0
 10
-92.101979
 20
77.611931
 30
0.0
 11
-92.101979
 21
87.689499
 31
0.0
  0
LINE
  8
0
 10
-107.054675
 20
82.247163
 30
0.0
 11
-106.601979
 21
82.411931
 31
0.0
  0
LINE
  8
0
 10
-54.693999
 20
102.369068
 30
0.0
 11
-56.017792
 21
106.006161
 31
0.0
  0
LINE
  8
0
 10
-57.230002
 20
106.626291
 30
0.0
 11
-99.351979
 21
94.69574
 31
0.0
  0
LINE
  8
0
 10
-106.384202
 20
92.372343
 30
0.0
 11
-107.322191
 21
82.453932
 31
0.0
  0
LINE
  8
0
 10
-104.351979
 20
93.279549
 30
0.0
 11
-106.022682
 21
92.806343
 31
0.0
  0
LINE
  8
0
 10
-99.351979
 20
85.050715
 30
0.0
 11
-55.291671
 21
101.087356
 31
0.0
  0
LINE
  8
0
 10
-99.351979
 20
77.111931
 30
0.0
 11
-92.601979
 21
77.111931
 31
0.0
  0
LINE
  8
0
 10
-104.951979
 20
89.458341
 30
0.0
 11
-104.951979
 21
77.111931
 31
0.0
  0
ARC
  8
0
 10
-107.123079
 20
82.435101
 30
0.0
 40
0.2
 50
174.597576
 51
290.0
  0
ARC
  8
0
 10
-105.886423
 20
92.325267
 30
0.0
 40
0.5
 50
105.814146
 51
174.597576
  0
ARC
  8
0
 10
-106.101979
 20
77.611931
 30
0.0
 40
0.5
 50
180.0
 51
270.0
  0
ARC
  8
0
 10
-92.601979
 20
77.611931
 30
0.0
 40
0.5
 50
270.0
 51
360.0
  0
ARC
  8
0
 10
-56.957485
 20
105.66414
 30
0.0
 40
1.0
 50
20.0
 51
105.814146
  0
LINE
  8
0
 10
-104.501979
 20
92.111931
 30
0.0
 11
-104.501979
 21
93.237064
 31
0.0
  0
LINE
  8
0
 10
-104.224413
 20
89.458341
 30
0.0
 11
-104.224413
 21
92.111931
 31
0.0
  0
LINE
  8
0
 10
-104.951979
 20
89.458341
 30
0.0
 11
-104.051979
 21
89.458341
 31
0.0
  0
CIRCLE
  8
0
 10
-104.519958
 20
89.108341
 30
0.0
 40
0.35
  0
CIRCLE
  8
0
 10
-104.519958
 20
82.961931
 30
0.0
 40
0.35
  0
CIRCLE
  8
0
 10
-104.519958
 20
86.035136
 30
0.0
 40
0.35
  0
INSERT
  8
0
  2
*X0
 10
-574.002748
 20
78.994264
 30
0.0
  0
CIRCLE
  8
0
 10
-99.351979
 20
56.027466
 30
0.0
 40
5.0
  0
ARC
  8
0
 10
-99.351979
 20
56.027466
 30
0.0
 40
4.0
 50
278.626927
 51
81.373073
  0
ARC
  8
0
 10
-99.351979
 20
56.027466
 30
0.0
 40
7.032223
 50
85.117429
 51
274.88257
  0
ARC
  8
0
 10
-99.351979
 20
56.027466
 30
0.0
 40
7.970212
 50
84.510245
 51
275.489756
  0
LINE
  8
0
 10
-99.951979
 20
51.063597
 30
0.0
 11
-99.951979
 21
60.991336
 31
0.0
  0
LINE
  8
0
 10
-98.751979
 20
51.063597
 30
0.0
 11
-98.751979
 21
60.991336
 31
0.0
  0
ARC
  8
0
 10
-99.351979
 20
56.027466
 30
0.0
 40
4.0
 50
98.626927
 51
261.373073
  0
ARC
  8
0
 10
-57.851979
 20
56.027466
 30
0.0
 40
3.5
 50
274.882569
 51
85.11742
  0
ARC
  8
0
 10
-57.851979
 20
56.027466
 30
0.0
 40
4.0
 50
275.489755
 51
84.510245
  0
LINE
  8
0
 10
-98.589486
 20
48.093811
 30
0.0
 11
-57.469307
 21
52.045813
 31
0.0
  0
LINE
  8
0
 10
-98.753439
 20
49.020762
 30
0.0
 11
-57.55408
 21
52.540167
 31
0.0
  0
LINE
  8
0
 10
-98.589486
 20
63.961122
 30
0.0
 11
-57.469307
 21
60.00912
 31
0.0
  0
LINE
  8
0
 10
-98.753439
 20
63.034171
 30
0.0
 11
-57.55408
 21
59.514766
 31
0.0
  0
CIRCLE
  8
0
 10
-99.351979
 20
56.027466
 30
0.0
 40
5.15
  0
LINE
  8
0
 10
15.858261
 20
73.111931
 30
0.0
 11
28.358261
 21
73.111931
 31
0.0
  0
LINE
  8
0
 10
15.808261
 20
95.611931
 30
0.0
 11
20.008261
 21
95.611931
 31
0.0
  0
LINE
  8
0
  6
CENTER
 10
22.108261
 20
70.785725
 30
0.0
 11
22.108261
 21
103.525805
 31
0.0
  0
LINE
  8
0
 10
15.358261
 20
73.611931
 30
0.0
 11
15.358261
 21
85.111931
 31
0.0
  0
LINE
  8
0
 10
28.858261
 20
73.611931
 30
0.0
 11
28.858261
 21
79.111931
 31
0.0
  0
LINE
  8
0
 10
15.358261
 20
85.111931
 30
0.0
 11
16.508261
 21
85.111931
 31
0.0
  0
LINE
  8
0
 10
16.508261
 20
85.111931
 30
0.0
 11
16.508261
 21
87.911931
 31
0.0
  0
LINE
  8
0
 10
17.008261
 20
88.411931
 30
0.0
 11
17.258261
 21
88.411931
 31
0.0
  0
LINE
  8
0
 10
17.258261
 20
88.411931
 30
0.0
 11
17.258261
 21
92.011931
 31
0.0
  0
LINE
  8
0
 10
16.908261
 20
92.011931
 30
0.0
 11
17.258261
 21
92.011931
 31
0.0
  0
LINE
  8
0
 10
16.408261
 20
92.511931
 30
0.0
 11
16.408261
 21
95.611931
 31
0.0
  0
LINE
  8
0
 10
19.608261
 20
88.011931
 30
0.0
 11
19.608261
 21
95.611931
 31
0.0
  0
LINE
  8
0
 10
20.008261
 20
87.611931
 30
0.0
 11
20.008261
 21
95.611931
 31
0.0
  0
LINE
  8
0
 10
18.108261
 20
86.111931
 30
0.0
 11
22.108261
 21
86.111931
 31
0.0
  0
LINE
  8
0
 10
18.108261
 20
73.111931
 30
0.0
 11
18.108261
 21
86.111931
 31
0.0
  0
LINE
  8
0
 10
15.358261
 20
73.611931
 30
0.0
 11
15.858261
 21
73.111931
 31
0.0
  0
LINE
  8
0
 10
28.358261
 20
73.111931
 30
0.0
 11
28.858261
 21
73.611931
 31
0.0
  0
LINE
  8
0
 10
16.408261
 20
92.511931
 30
0.0
 11
16.908261
 21
92.011931
 31
0.0
  0
LINE
  8
0
 10
17.008261
 20
88.411931
 30
0.0
 11
16.508261
 21
87.911931
 31
0.0
  0
LINE
  8
0
 10
28.858261
 20
73.611931
 30
0.0
 11
22.108261
 21
73.611931
 31
0.0
  0
LINE
  8
0
 10
18.708261
 20
88.250536
 30
0.0
 11
19.608261
 21
88.770151
 31
0.0
  0
LINE
  8
0
 10
20.008261
 20
87.611931
 30
0.0
 11
22.108261
 21
87.611931
 31
0.0
  0
LINE
  8
0
 10
16.908261
 20
101.611931
 30
0.0
 11
21.508261
 21
101.611931
 31
0.0
  0
LINE
  8
0
 10
15.908261
 20
95.611931
 30
0.0
 11
15.908261
 21
100.611931
 31
0.0
  0
LINE
  8
0
 10
28.308261
 20
99.295514
 30
0.0
 11
28.308261
 21
100.611931
 31
0.0
  0
LINE
  8
0
 10
16.908261
 20
101.611931
 30
0.0
 11
15.908261
 21
100.611931
 31
0.0
  0
LINE
  8
0
 10
27.308261
 20
101.611931
 30
0.0
 11
28.308261
 21
100.611931
 31
0.0
  0
LINE
  8
0
 10
28.308261
 20
100.611931
 30
0.0
 11
22.708261
 21
100.611931
 31
0.0
  0
LINE
  8
0
 10
21.508261
 20
100.411931
 30
0.0
 11
21.508261
 21
101.611931
 31
0.0
  0
LINE
  8
0
 10
22.708261
 20
100.411931
 30
0.0
 11
22.708261
 21
101.611931
 31
0.0
  0
LINE
  8
0
 10
22.708261
 20
101.611931
 30
0.0
 11
27.308261
 21
101.611931
 31
0.0
  0
LINE
  8
0
 10
-98.751979
 20
97.111931
 30
0.0
 11
-95.351979
 21
97.111931
 31
0.0
  0
LINE
  8
0
 10
13.608261
 20
79.111931
 30
0.0
 11
15.358261
 21
79.111931
 31
0.0
  0
LINE
  8
0
 10
13.108261
 20
79.611931
 30
0.0
 11
13.108261
 21
82.111931
 31
0.0
  0
LINE
  8
0
 10
31.108261
 20
79.611931
 30
0.0
 11
31.108261
 21
88.663395
 31
0.0
  0
LINE
  8
0
 10
12.841786
 20
82.014942
 30
0.0
 11
13.108261
 21
82.111931
 31
0.0
  0
LINE
  8
0
 10
82.212718
 20
113.16178
 30
0.0
 11
83.680736
 21
109.128432
 31
0.0
  0
LINE
  8
0
 10
80.701651
 20
113.938124
 30
0.0
 11
22.108261
 21
97.562773
 31
0.0
  0
LINE
  8
0
 10
13.17964
 20
94.728685
 30
0.0
 11
12.17247
 21
82.525917
 31
0.0
  0
ARC
  8
0
 10
12.670776
 20
82.484788
 30
0.0
 40
0.5
 50
175.281721
 51
290.0
  0
ARC
  8
0
 10
13.677946
 20
94.687557
 30
0.0
 40
0.5
 50
105.614315
 51
175.281721
  0
ARC
  8
0
 10
13.608261
 20
79.611931
 30
0.0
 40
0.5
 50
180.0
 51
270.0
  0
ARC
  8
0
 10
30.608261
 20
79.611931
 30
0.0
 40
0.5
 50
270.0
 51
0.0
  0
LINE
  8
0
 10
22.108261
 20
79.111931
 30
0.0
 11
30.608261
 21
79.111931
 31
0.0
  0
LINE
  8
0
 10
15.908261
 20
95.830032
 30
0.0
 11
13.543366
 21
95.169105
 31
0.0
  0
LINE
  8
0
 10
15.258261
 20
79.111931
 30
0.0
 11
15.258261
 21
92.211931
 31
0.0
  0
LINE
  8
0
 10
15.258261
 20
92.211931
 30
0.0
 11
16.708261
 21
92.211931
 31
0.0
  0
LINE
  8
0
 10
16.308261
 20
92.211931
 30
0.0
 11
16.308261
 21
95.611931
 31
0.0
  0
LINE
  8
0
 10
15.808261
 20
95.611931
 30
0.0
 11
15.808261
 21
95.802085
 31
0.0
  0
INSERT
  8
0
  2
*X1
 10
-259.343087
 20
60.229861
 30
0.0
  0
CIRCLE
  8
0
 10
15.709755
 20
91.811931
 30
0.0
 40
0.4
  0
CIRCLE
  8
0
 10
15.709755
 20
85.511931
 30
0.0
 40
0.4
  0
CIRCLE
  8
0
 10
15.709755
 20
88.661931
 30
0.0
 40
0.4
  0
ARC
  8
0
 10
81.038102
 20
112.734254
 30
0.0
 40
1.25
 50
20.0
 51
105.614315
  0
ARC
  8
0
 10
82.50612
 20
108.700908
 30
0.0
 40
1.25
 50
290.0
 51
20.0
  0
CIRCLE
  8
0
 10
22.108261
 20
51.967105
 30
0.0
 40
6.2
  0
ARC
  8
0
 10
22.108261
 20
51.967105
 30
0.0
 40
5.2
 50
96.62581
 51
263.37419
  0
ARC
  8
0
 10
22.108261
 20
51.967105
 30
0.0
 40
8.928621
 50
85.095493
 51
274.904507
  0
ARC
  8
0
 10
22.108261
 20
51.967105
 30
0.0
 40
9.935791
 50
84.339713
 51
275.660287
  0
LINE
  8
0
 10
82.933645
 20
107.526293
 30
0.0
 11
22.108261
 21
85.387663
 31
0.0
  0
ARC
  8
0
 10
79.75612
 20
51.967105
 30
0.0
 40
4.0
 50
274.904507
 51
85.095493
  0
ARC
  8
0
 10
79.75612
 20
51.967105
 30
0.0
 40
4.25
 50
275.660267
 51
84.339733
  0
LINE
  8
0
 10
23.088225
 20
61.854451
 30
0.0
 11
80.175292
 21
56.196384
 31
0.0
  0
LINE
  8
0
 10
23.088225
 20
42.07976
 30
0.0
 11
80.175292
 21
47.737827
 31
0.0
  0
LINE
  8
0
 10
22.871616
 20
60.863035
 30
0.0
 11
80.098101
 21
55.95246
 31
0.0
  0
LINE
  8
0
 10
22.871616
 20
43.071176
 30
0.0
 11
80.098101
 21
47.981751
 31
0.0
  0
LINE
  8
0
 10
21.508261
 20
45.796206
 30
0.0
 11
21.508261
 21
58.138005
 31
0.0
  0
LINE
  8
0
 10
22.708261
 20
45.796206
 30
0.0
 11
22.708261
 21
58.138005
 31
0.0
  0
ARC
  8
0
 10
22.108261
 20
51.967105
 30
0.0
 40
5.2
 50
276.62581
 51
83.37419
  0
LINE
  8
0
 10
22.708261
 20
100.411931
 30
0.0
 11
21.508261
 21
100.411931
 31
0.0
  0
LINE
  8
0
 10
156.91828
 20
73.111931
 30
0.0
 11
171.91828
 21
73.111931
 31
0.0
  0
LINE
  8
0
 10
156.31828
 20
99.611931
 30
0.0
 11
162.31828
 21
99.611931
 31
0.0
  0
LINE
  8
0
 10
156.41828
 20
87.611931
 30
0.0
 11
156.41828
 21
73.611931
 31
0.0
  0
LINE
  8
0
 10
172.41828
 20
80.111931
 30
0.0
 11
172.41828
 21
73.611931
 31
0.0
  0
LINE
  8
0
 10
156.41828
 20
87.611931
 30
0.0
 11
157.71828
 21
87.611931
 31
0.0
  0
LINE
  8
0
 10
157.71828
 20
87.611931
 30
0.0
 11
157.71828
 21
91.911931
 31
0.0
  0
LINE
  8
0
 10
158.21828
 20
92.411931
 30
0.0
 11
158.61828
 21
92.411931
 31
0.0
  0
LINE
  8
0
 10
158.61828
 20
92.411931
 30
0.0
 11
158.61828
 21
96.211931
 31
0.0
  0
LINE
  8
0
 10
158.11828
 20
96.211931
 30
0.0
 11
158.61828
 21
96.211931
 31
0.0
  0
LINE
  8
0
 10
157.61828
 20
96.711931
 30
0.0
 11
157.61828
 21
99.611931
 31
0.0
  0
LINE
  8
0
 10
156.91828
 20
73.111931
 30
0.0
 11
156.41828
 21
73.611931
 31
0.0
  0
LINE
  8
0
 10
171.91828
 20
73.111931
 30
0.0
 11
172.41828
 21
73.611931
 31
0.0
  0
LINE
  8
0
 10
157.71828
 20
91.911931
 30
0.0
 11
158.21828
 21
92.411931
 31
0.0
  0
LINE
  8
0
 10
157.61828
 20
96.711931
 30
0.0
 11
158.11828
 21
96.211931
 31
0.0
  0
LINE
  8
0
 10
172.41828
 20
73.611931
 30
0.0
 11
164.41828
 21
73.611931
 31
0.0
  0
LINE
  8
0
 10
159.41828
 20
73.111931
 30
0.0
 11
159.41828
 21
88.111931
 31
0.0
  0
LINE
  8
0
 10
159.41828
 20
88.111931
 30
0.0
 11
164.41828
 21
88.111931
 31
0.0
  0
LINE
  8
0
 10
160.16828
 20
91.807876
 30
0.0
 11
161.91828
 21
92.818239
 31
0.0
  0
LINE
  8
0
 10
162.31828
 20
91.611931
 30
0.0
 11
164.41828
 21
91.611931
 31
0.0
  0
LINE
  8
0
 10
161.91828
 20
92.011931
 30
0.0
 11
161.91828
 21
99.611931
 31
0.0
  0
LINE
  8
0
 10
162.31828
 20
91.611931
 30
0.0
 11
162.31828
 21
99.611931
 31
0.0
  0
LINE
  8
0
 10
158.06828
 20
106.611931
 30
0.0
 11
163.81828
 21
106.611931
 31
0.0
  0
LINE
  8
0
 10
157.26828
 20
99.611931
 30
0.0
 11
157.26828
 21
105.811931
 31
0.0
  0
LINE
  8
0
 10
171.56828
 20
105.611931
 30
0.0
 11
171.56828
 21
105.811931
 31
0.0
  0
LINE
  8
0
 10
158.06828
 20
106.611931
 30
0.0
 11
157.26828
 21
105.811931
 31
0.0
  0
LINE
  8
0
 10
170.76828
 20
106.611931
 30
0.0
 11
171.56828
 21
105.811931
 31
0.0
  0
LINE
  8
0
 10
171.56828
 20
105.811931
 30
0.0
 11
165.01828
 21
105.811931
 31
0.0
  0
LINE
  8
0
 10
163.81828
 20
105.611931
 30
0.0
 11
165.01828
 21
105.611931
 31
0.0
  0
LINE
  8
0
 10
163.81828
 20
105.611931
 30
0.0
 11
163.81828
 21
106.611931
 31
0.0
  0
LINE
  8
0
 10
165.01828
 20
105.611931
 30
0.0
 11
165.01828
 21
106.611931
 31
0.0
  0
LINE
  8
0
 10
165.01828
 20
106.611931
 30
0.0
 11
170.76828
 21
106.611931
 31
0.0
  0
LINE
  8
0
 10
153.91828
 20
80.111931
 30
0.0
 11
156.41828
 21
80.111931
 31
0.0
  0
LINE
  8
0
 10
153.41828
 20
80.611931
 30
0.0
 11
153.41828
 21
86.007183
 31
0.0
  0
LINE
  8
0
 10
175.41828
 20
80.611931
 30
0.0
 11
175.41828
 21
93.912228
 31
0.0
  0
LINE
  8
0
 10
236.24921
 20
122.508873
 30
0.0
 11
237.988993
 21
117.728857
 31
0.0
  0
LINE
  8
0
 10
237.237069
 20
116.124968
 30
0.0
 11
164.41828
 21
89.959706
 31
0.0
  0
LINE
  8
0
 10
153.891482
 20
99.853275
 30
0.0
 11
152.406254
 21
86.408314
 31
0.0
  0
LINE
  8
0
 10
153.41828
 20
86.007183
 30
0.0
 11
153.072308
 21
85.882868
 31
0.0
  0
LINE
  8
0
 10
156.31828
 20
99.611931
 30
0.0
 11
156.31828
 21
80.111931
 31
0.0
  0
LINE
  8
0
 10
156.31828
 20
97.111931
 30
0.0
 11
157.61828
 21
97.111931
 31
0.0
  0
LINE
  8
0
 10
157.51828
 20
97.111931
 30
0.0
 11
157.51828
 21
99.611931
 31
0.0
  0
LINE
  8
0
 10
156.86828
 20
99.611931
 30
0.0
 11
156.86828
 21
101.499253
 31
0.0
  0
ARC
  8
0
 10
152.903231
 20
86.353414
 30
0.0
 40
0.5
 50
173.696253
 51
289.764388
  0
ARC
  8
0
 10
153.91828
 20
80.611931
 30
0.0
 40
0.5
 50
180.0
 51
270.0
  0
ARC
  8
0
 10
174.91828
 20
80.611931
 30
0.0
 40
0.5
 50
270.0
 51
0.0
  0
CIRCLE
  8
0
 10
156.844236
 20
96.661931
 30
0.0
 40
0.45
  0
CIRCLE
  8
0
 10
156.844236
 20
88.061931
 30
0.0
 40
0.45
  0
CIRCLE
  8
0
 10
156.844236
 20
92.361931
 30
0.0
 40
0.45
  0
ARC
  8
0
 10
236.814378
 20
117.301332
 30
0.0
 40
1.25
 50
289.764388
 51
20.0
  0
LINE
  8
0
 10
234.737809
 20
123.285124
 30
0.0
 11
164.41828
 21
103.611547
 31
0.0
  0
ARC
  8
0
 10
235.074594
 20
122.081348
 30
0.0
 40
1.25
 50
20.0
 51
105.630239
  0
LINE
  8
0
 10
157.26828
 20
101.611163
 30
0.0
 11
154.797139
 21
100.919802
 31
0.0
  0
ARC
  8
0
 10
155.133924
 20
99.716026
 30
0.0
 40
1.25
 50
105.630239
 51
173.696253
  0
INSERT
  8
0
  2
*X2
 10
169.860554
 20
173.223501
 30
0.0
  0
LINE
  8
0
  6
CENTER
 10
164.41828
 20
70.901528
 30
0.0
 11
164.41828
 21
108.709679
 31
0.0
  0
ARC
  8
0
 10
164.41828
 20
50.548098
 30
0.0
 40
6.35
 50
95.421863
 51
264.578137
  0
CIRCLE
  8
0
 10
164.41828
 20
50.548098
 30
0.0
 40
7.15
  0
ARC
  8
0
 10
164.41828
 20
50.548098
 30
0.0
 40
10.526798
 50
86.162963
 51
273.837037
  0
ARC
  8
0
 10
164.41828
 20
50.548098
 30
0.0
 40
12.012026
 50
85.326168
 51
274.673833
  0
LINE
  8
0
 10
165.01828
 20
43.423318
 30
0.0
 11
165.01828
 21
57.672879
 31
0.0
  0
LINE
  8
0
 10
163.81828
 20
43.423318
 30
0.0
 11
163.81828
 21
57.672879
 31
0.0
  0
ARC
  8
0
 10
164.41828
 20
50.548098
 30
0.0
 40
6.35
 50
275.421863
 51
84.578137
  0
ARC
  8
0
 10
232.064378
 20
50.548098
 30
0.0
 40
6.0
 50
273.837034
 51
86.162966
  0
ARC
  8
0
 10
232.064378
 20
50.548098
 30
0.0
 40
6.5
 50
274.67383
 51
85.32617
  0
LINE
  8
0
 10
165.39706
 20
62.520181
 30
0.0
 11
232.594019
 21
57.026484
 31
0.0
  0
LINE
  8
0
 10
165.122721
 20
61.0513
 30
0.0
 11
232.465891
 21
56.534649
 31
0.0
  0
LINE
  8
0
 10
165.122721
 20
40.044897
 30
0.0
 11
232.465891
 21
44.561548
 31
0.0
  0
LINE
  8
0
 10
165.39706
 20
38.576016
 30
0.0
 11
232.594019
 21
44.069713
 31
0.0
  0
CIRCLE
  8
0
 10
22.108261
 20
51.967105
 30
0.0
 40
6.35
  0
CIRCLE
  8
0
 10
164.41828
 20
50.548098
 30
0.0
 40
7.3
  0
LINE
  8
0
 10
164.41828
 20
80.111931
 30
0.0
 11
174.91828
 21
80.111931
 31
0.0
  0
LINE
  8
0
 10
248.732076
 20
80.111931
 30
0.0
 11
269.732077
 21
80.111931
 31
0.0
  0
LINE
  8
0
 10
251.732077
 20
73.111931
 30
0.0
 11
266.732077
 21
73.111931
 31
0.0
  0
LINE
  8
0
 10
251.232077
 20
80.111931
 30
0.0
 11
251.232077
 21
73.611931
 31
0.0
  0
LINE
  8
0
 10
267.232077
 20
80.111931
 30
0.0
 11
267.232077
 21
73.611931
 31
0.0
  0
LINE
  8
0
 10
251.732077
 20
73.111931
 30
0.0
 11
251.232077
 21
73.611931
 31
0.0
  0
LINE
  8
0
 10
266.732077
 20
73.111931
 30
0.0
 11
267.232077
 21
73.611931
 31
0.0
  0
LINE
  8
0
 10
267.232077
 20
73.611931
 30
0.0
 11
251.232077
 21
73.611931
 31
0.0
  0
LINE
  8
0
 10
252.882077
 20
106.611931
 30
0.0
 11
265.582077
 21
106.611931
 31
0.0
  0
LINE
  8
0
 10
252.082077
 20
102.978763
 30
0.0
 11
252.082077
 21
105.811931
 31
0.0
  0
LINE
  8
0
 10
252.882077
 20
106.611931
 30
0.0
 11
252.082077
 21
105.811931
 31
0.0
  0
LINE
  8
0
 10
265.582077
 20
106.611931
 30
0.0
 11
266.382077
 21
105.811931
 31
0.0
  0
LINE
  8
0
 10
248.232077
 20
80.611931
 30
0.0
 11
248.232077
 21
88.626136
 31
0.0
  0
LINE
  8
0
 10
270.232077
 20
80.611931
 30
0.0
 11
270.232077
 21
88.626136
 31
0.0
  0
LINE
  8
0
 10
249.120444
 20
103.611547
 30
0.0
 11
247.612363
 21
89.959706
 31
0.0
  0
ARC
  8
0
 10
248.732077
 20
80.611931
 30
0.0
 40
0.5
 50
180.0
 51
270.0
  0
ARC
  8
0
 10
269.732077
 20
80.611931
 30
0.0
 40
0.5
 50
270.0
 51
0.0
  0
LINE
  8
0
 10
266.382077
 20
102.978763
 30
0.0
 11
266.382077
 21
105.811931
 31
0.0
  0
LINE
  8
0
 10
269.343709
 20
103.611547
 30
0.0
 11
270.85179
 21
89.959706
 31
0.0
  0
ARC
  8
0
 10
249.44406
 20
90.000124
 30
0.0
 40
1.832143
 50
181.264081
 51
240.048089
  0
ARC
  8
0
 10
254.350228
 20
96.044192
 30
0.0
 40
9.598074
 50
232.665583
 51
255.953926
  0
ARC
  8
0
 10
269.020093
 20
90.000124
 30
0.0
 40
1.832143
 50
299.951911
 51
358.735919
  0
ARC
  8
0
 10
264.113926
 20
96.044192
 30
0.0
 40
9.598074
 50
284.046074
 51
307.334417
  0
ARC
  8
0
 10
259.232077
 20
115.851332
 30
0.0
 40
29.997918
 50
256.0902
 51
283.9098
  0
LINE
  8
0
 10
252.082077
 20
105.811931
 30
0.0
 11
266.382077
 21
105.811931
 31
0.0
  0
ARC
  8
0
 10
252.374129
 20
103.611547
 30
0.0
 40
0.692052
 50
114.961472
 51
180.0
  0
ARC
  8
0
 10
252.374129
 20
103.611547
 30
0.0
 40
0.692052
 50
180.0
 51
237.395001
  0
ARC
  8
0
 10
255.93547
 20
109.326268
 30
0.0
 40
7.425595
 50
238.006516
 51
260.914795
  0
ARC
  8
0
 10
266.090025
 20
103.611547
 30
0.0
 40
0.692052
 50
0.0
 51
65.038528
  0
ARC
  8
0
 10
266.090025
 20
103.611547
 30
0.0
 40
0.692052
 50
302.604999
 51
0.0
  0
ARC
  8
0
 10
262.528683
 20
109.326268
 30
0.0
 40
7.425595
 50
279.085205
 51
301.993484
  0
ARC
  8
0
 10
259.232077
 20
127.899768
 30
0.0
 40
26.288606
 50
260.21203
 51
279.78797
  0
ARC
  8
0
 10
-55.633691
 20
102.027048
 30
0.0
 40
1.0
 50
290.0
 51
20.0
  0
LINE
  8
0
 10
253.196228
 20
121.040005
 30
0.0
 11
249.120444
 21
103.611547
 31
0.0
  0
LINE
  8
0
 10
265.267925
 20
121.040005
 30
0.0
 11
269.343709
 21
103.611547
 31
0.0
  0
ARC
  8
0
 10
259.232077
 20
109.766477
 30
0.0
 40
13.564871
 50
69.297343
 51
110.702657
  0
ARC
  8
0
 10
255.143684
 20
120.584577
 30
0.0
 40
2.0
 50
110.702657
 51
166.837475
  0
ARC
  8
0
 10
263.320469
 20
120.584577
 30
0.0
 40
2.0
 50
13.162525
 51
69.297343
  0
ARC
  8
0
 10
259.232077
 20
118.63203
 30
0.0
 40
18.106905
 50
236.051971
 51
303.948029
  0
LINE
  8
0
 10
-102.898582
 20
-62.001617
 30
0.0
 11
-84.898582
 21
-62.001617
 31
0.0
  0
LINE
  8
0
 10
-103.398582
 20
-61.501617
 30
0.0
 11
-103.398582
 21
-44.601617
 31
0.0
  0
LINE
  8
0
 10
-84.398582
 20
-61.501617
 30
0.0
 11
-84.398582
 21
-53.001617
 31
0.0
  0
LINE
  8
0
 10
-102.198582
 20
-31.501617
 30
0.0
 11
-95.998582
 21
-31.501617
 31
0.0
  0
LINE
  8
0
  6
CENTER
 10
-93.898582
 20
-64.539376
 30
0.0
 11
-93.898582
 21
-21.116798
 31
0.0
  0
LINE
  8
0
 10
-103.398582
 20
-44.601617
 30
0.0
 11
-101.898582
 21
-44.601617
 31
0.0
  0
LINE
  8
0
 10
-101.898582
 20
-44.601617
 30
0.0
 11
-101.898582
 21
-40.301617
 31
0.0
  0
LINE
  8
0
 10
-101.198582
 20
-39.601617
 30
0.0
 11
-101.198582
 21
-35.501617
 31
0.0
  0
LINE
  8
0
 10
-102.198582
 20
-34.501617
 30
0.0
 11
-102.198582
 21
-31.501617
 31
0.0
  0
LINE
  8
0
 10
-101.198582
 20
-35.501617
 30
0.0
 11
-102.198582
 21
-34.501617
 31
0.0
  0
LINE
  8
0
 10
-101.198582
 20
-39.601617
 30
0.0
 11
-101.898582
 21
-40.301617
 31
0.0
  0
LINE
  8
0
 10
-84.398582
 20
-61.501617
 30
0.0
 11
-84.898582
 21
-62.001617
 31
0.0
  0
LINE
  8
0
 10
-102.898582
 20
-62.001617
 30
0.0
 11
-103.398582
 21
-61.501617
 31
0.0
  0
LINE
  8
0
 10
-84.398582
 20
-61.501617
 30
0.0
 11
-93.898582
 21
-61.501617
 31
0.0
  0
LINE
  8
0
 10
-106.398582
 20
-52.001617
 30
0.0
 11
-106.398582
 21
-48.755746
 31
0.0
  0
LINE
  8
0
 10
-81.398582
 20
-52.001617
 30
0.0
 11
-81.398582
 21
-40.108966
 31
0.0
  0
LINE
  8
0
 10
-102.398582
 20
-23.601617
 30
0.0
 11
-94.448582
 21
-23.601617
 31
0.0
  0
LINE
  8
0
 10
-102.898582
 20
-31.501617
 30
0.0
 11
-102.898582
 21
-24.101617
 31
0.0
  0
LINE
  8
0
 10
-9.288761
 20
-5.502023
 30
0.0
 11
-93.898582
 21
-27.901617
 31
0.0
  0
LINE
  8
0
 10
-6.855583
 20
-6.880003
 30
0.0
 11
-5.426058
 21
-11.825129
 31
0.0
  0
LINE
  8
0
 10
-105.398582
 20
-53.001617
 30
0.0
 11
-103.398582
 21
-53.001617
 31
0.0
  0
LINE
  8
0
 10
-106.000997
 20
-32.309054
 30
0.0
 11
-107.322191
 21
-48.183749
 31
0.0
  0
LINE
  8
0
 10
-6.693646
 20
-14.27068
 30
0.0
 11
-93.898582
 21
-44.432356
 31
0.0
  0
ARC
  8
0
 10
-106.724258
 20
-48.233513
 30
0.0
 40
0.6
 50
175.242441
 51
289.079029
  0
LINE
  8
0
 10
-84.898582
 20
-25.518958
 30
0.0
 11
-84.898582
 21
-24.101617
 31
0.0
  0
LINE
  8
0
 10
-102.898582
 20
-30.284276
 30
0.0
 11
-104.704892
 21
-30.762478
 31
0.0
  0
LINE
  8
0
 10
-106.398582
 20
-48.755746
 30
0.0
 11
-106.528135
 21
-48.800554
 31
0.0
  0
LINE
  8
0
 10
-93.898582
 20
-53.001617
 30
0.0
 11
-82.398582
 21
-53.001617
 31
0.0
  0
LINE
  8
0
 10
-102.998582
 20
-31.501617
 30
0.0
 11
-95.998582
 21
-31.501617
 31
0.0
  0
LINE
  8
0
 10
-102.398582
 20
-23.601617
 30
0.0
 11
-102.898582
 21
-24.101617
 31
0.0
  0
LINE
  8
0
 10
-85.398582
 20
-23.601617
 30
0.0
 11
-84.898582
 21
-24.101617
 31
0.0
  0
LINE
  8
0
 10
-84.898582
 20
-24.101617
 30
0.0
 11
-93.348582
 21
-24.101617
 31
0.0
  0
LINE
  8
0
 10
-94.448582
 20
-24.301617
 30
0.0
 11
-94.448582
 21
-23.601617
 31
0.0
  0
LINE
  8
0
 10
-93.348582
 20
-24.301617
 30
0.0
 11
-93.348582
 21
-23.601617
 31
0.0
  0
LINE
  8
0
 10
-94.448582
 20
-24.301617
 30
0.0
 11
-93.348582
 21
-24.301617
 31
0.0
  0
LINE
  8
0
 10
-93.348582
 20
-23.601617
 30
0.0
 11
-85.398582
 21
-23.601617
 31
0.0
  0
ARC
  8
0
 10
-104.257026
 20
-32.454198
 30
0.0
 40
1.75
 50
104.828301
 51
175.242441
  0
ARC
  8
0
 10
-105.398582
 20
-52.001617
 30
0.0
 40
1.0
 50
180.0
 51
270.0
  0
ARC
  8
0
 10
-82.398582
 20
-52.001617
 30
0.0
 40
1.0
 50
270.0
 51
0.0
  0
LINE
  8
0
 10
-102.298582
 20
-35.301617
 30
0.0
 11
-102.298582
 21
-31.501617
 31
0.0
  0
LINE
  8
0
 10
-103.498582
 20
-35.301617
 30
0.0
 11
-101.398582
 21
-35.301617
 31
0.0
  0
LINE
  8
0
 10
-102.998582
 20
-31.501617
 30
0.0
 11
-102.998582
 21
-30.31075
 31
0.0
  0
LINE
  8
0
 10
-103.498582
 20
-53.001617
 30
0.0
 11
-103.498582
 21
-35.301617
 31
0.0
  0
LINE
  8
0
 10
-95.998582
 20
-39.501617
 30
0.0
 11
-93.898582
 21
-39.501617
 31
0.0
  0
LINE
  8
0
 10
-96.398582
 20
-39.101617
 30
0.0
 11
-96.398582
 21
-31.501617
 31
0.0
  0
LINE
  8
0
 10
-95.998582
 20
-39.501617
 30
0.0
 11
-95.998582
 21
-31.501617
 31
0.0
  0
INSERT
  8
0
  2
*X3
 10
-315.959057
 20
32.094189
 30
0.0
  0
CIRCLE
  8
0
 10
-102.848582
 20
-44.051617
 30
0.0
 40
0.55
  0
CIRCLE
  8
0
 10
-102.848582
 20
-35.851617
 30
0.0
 40
0.55
  0
CIRCLE
  8
0
 10
-102.848582
 20
-39.951617
 30
0.0
 40
0.55
  0
LINE
  8
0
 10
-99.898582
 20
-44.001617
 30
0.0
 11
-93.898582
 21
-44.001617
 31
0.0
  0
LINE
  8
0
  6
CONTINUOUS
 10
-99.898582
 20
-62.001617
 30
0.0
 11
-99.898582
 21
-44.001617
 31
0.0
  0
LINE
  8
0
 10
-98.998582
 20
-39.453818
 30
0.0
 11
-96.398582
 21
-37.952707
 31
0.0
  0
ARC
  8
0
 10
-93.898582
 20
-93.389109
 30
0.0
 40
13.423609
 50
84.978002
 51
275.021998
  0
CIRCLE
  8
0
 10
-93.898582
 20
-93.389109
 30
0.0
 40
9.0
  0
ARC
  8
0
 10
-11.379087
 20
-93.389109
 30
0.0
 40
5.6
 50
274.519509
 51
85.480491
  0
ARC
  8
0
 10
-11.379087
 20
-93.389109
 30
0.0
 40
6.2
 50
275.021998
 51
84.978002
  0
ARC
  8
0
 10
-93.898582
 20
-93.389109
 30
0.0
 40
12.102415
 50
85.480469
 51
274.519531
  0
LINE
  8
0
 10
-92.723503
 20
-80.017031
 30
0.0
 11
-10.83635
 21
-87.21291
 31
0.0
  0
LINE
  8
0
 10
-92.944929
 20
-81.324326
 30
0.0
 11
-10.937815
 21
-87.806522
 31
0.0
  0
LINE
  8
0
 10
-92.944929
 20
-105.453892
 30
0.0
 11
-10.937815
 21
-98.971696
 31
0.0
  0
LINE
  8
0
 10
-92.723503
 20
-106.761187
 30
0.0
 11
-10.83635
 21
-99.565308
 31
0.0
  0
ARC
  8
0
 10
-93.898582
 20
-93.389109
 30
0.0
 40
8.5
 50
93.709966
 51
266.290034
  0
LINE
  8
0
 10
-94.448582
 20
-102.372288
 30
0.0
 11
-94.448582
 21
-84.40593
 31
0.0
  0
LINE
  8
0
 10
-93.348582
 20
-102.372288
 30
0.0
 11
-93.348582
 21
-84.40593
 31
0.0
  0
ARC
  8
0
 10
-93.898582
 20
-93.389109
 30
0.0
 40
8.5
 50
273.709966
 51
86.290034
  0
CIRCLE
  8
0
 10
-93.898582
 20
-93.389109
 30
0.0
 40
9.1
  0
ARC
  8
0
 10
-8.776914
 20
-7.435417
 30
0.0
 40
2.0
 50
16.123388
 51
104.828301
  0
ARC
  8
0
 10
-7.34739
 20
-12.380543
 30
0.0
 40
2.0
 50
289.079029
 51
16.123388
  0
ARC
  8
0
 10
-38.418863
 20
104.153855
 30
0.0
 40
21.918753
 50
263.96124
 51
276.03876
  0
LINE
  8
0
 10
-30.448052
 20
85.053128
 30
0.0
 11
-30.447762
 21
85.050715
 31
0.0
  0
ARC
  8
0
 10
-37.339049
 20
96.30003
 30
0.0
 40
13.997102
 50
275.025219
 51
286.21849
  0
ARC
  8
0
 10
-31.606555
 20
85.051551
 30
0.0
 40
1.158504
 50
300.335449
 51
13.621597
  0
ARC
  8
0
 10
-35.009575
 20
89.081813
 30
0.0
 40
6.419315
 50
284.248117
 51
308.409028
  0
LINE
  8
0
 10
-46.389674
 20
85.053128
 30
0.0
 11
-46.389964
 21
85.050715
 31
0.0
  0
ARC
  8
0
 10
-39.498678
 20
96.30003
 30
0.0
 40
13.997102
 50
253.78151
 51
264.974781
  0
ARC
  8
0
 10
-41.828151
 20
89.081813
 30
0.0
 40
6.419315
 50
231.590972
 51
255.751883
  0
ARC
  8
0
 10
-45.231171
 20
85.051551
 30
0.0
 40
1.158504
 50
166.378403
 51
239.664551
  0
LINE
  8
0
 10
-45.668863
 20
77.611931
 30
0.0
 11
-45.668863
 21
83.920029
 31
0.0
  0
POLYLINE
  8
0
 66
     1
 10
0.0
 20
0.0
 30
0.0
  0
VERTEX
  8
0
 10
-30.447762
 20
85.050715
 30
0.0
 42
0.059847
  0
VERTEX
  8
0
 10
-30.480637
 20
85.324389
 30
0.0
 42
0.091895
  0
SEQEND
  8
0
  0
LINE
  8
0
 10
-45.231361
 20
94.69574
 30
0.0
 11
-46.357089
 21
85.324389
 31
0.0
  0
LINE
  8
0
 10
-31.606365
 20
94.69574
 30
0.0
 11
-30.480637
 21
85.324389
 31
0.0
  0
ARC
  8
0
 10
-38.418863
 20
111.885011
 30
0.0
 40
18.705461
 50
262.74568
 51
277.25432
  0
ARC
  8
0
 10
-36.533307
 20
98.672042
 30
0.0
 40
5.363965
 50
275.095995
 51
302.859995
  0
ARC
  8
0
 10
-33.948347
 20
94.69906
 30
0.0
 40
0.624294
 50
301.421677
 51
31.990768
  0
ARC
  8
0
 10
-40.30442
 20
98.672042
 30
0.0
 40
5.363965
 50
237.140005
 51
264.904005
  0
ARC
  8
0
 10
-42.889379
 20
94.69906
 30
0.0
 40
0.624294
 50
148.009232
 51
238.578323
  0
ARC
  8
0
 10
-35.634384
 20
105.272728
 30
0.0
 40
1.0
 50
15.779304
 51
73.996803
  0
ARC
  8
0
 10
-41.203342
 20
105.272728
 30
0.0
 40
1.0
 50
106.003197
 51
164.220696
  0
LINE
  8
0
 10
-34.672068
 20
105.544661
 30
0.0
 11
-31.606365
 21
94.69574
 31
0.0
  0
LINE
  8
0
 10
-42.165658
 20
105.544661
 30
0.0
 11
-45.231361
 21
94.69574
 31
0.0
  0
ARC
  8
0
 10
-38.418863
 20
95.56414
 30
0.0
 40
11.1
 50
73.996803
 51
106.003197
  0
ARC
  8
0
 10
-38.418863
 20
104.98753
 30
0.0
 40
12.342248
 50
236.498023
 51
303.501977
  0
ARC
  8
0
 10
-31.668863
 20
77.611931
 30
0.0
 40
0.5
 50
270.0
 51
0.0
  0
LINE
  8
0
 10
-31.168863
 20
77.611931
 30
0.0
 11
-31.168863
 21
83.920029
 31
0.0
  0
LINE
  8
0
 10
-33.418863
 20
94.36832
 30
0.0
 11
-33.418863
 21
96.111931
 31
0.0
  0
LINE
  8
0
 10
-43.418863
 20
73.111931
 30
0.0
 11
-43.918863
 21
73.611931
 31
0.0
  0
LINE
  8
0
 10
-43.918863
 20
77.111931
 30
0.0
 11
-43.918863
 21
73.611931
 31
0.0
  0
LINE
  8
0
 10
-33.418863
 20
96.111931
 30
0.0
 11
-43.418863
 21
96.111931
 31
0.0
  0
LINE
  8
0
 10
-34.418863
 20
97.111931
 30
0.0
 11
-33.418863
 21
96.111931
 31
0.0
  0
LINE
  8
0
 10
-42.418863
 20
97.111931
 30
0.0
 11
-43.418863
 21
96.111931
 31
0.0
  0
LINE
  8
0
 10
-43.418863
 20
94.36832
 30
0.0
 11
-43.418863
 21
96.111931
 31
0.0
  0
LINE
  8
0
 10
-42.418863
 20
97.111931
 30
0.0
 11
-34.418863
 21
97.111931
 31
0.0
  0
LINE
  8
0
 10
-43.418863
 20
73.111931
 30
0.0
 11
-33.418863
 21
73.111931
 31
0.0
  0
LINE
  8
0
 10
-32.918863
 20
77.111931
 30
0.0
 11
-32.918863
 21
73.611931
 31
0.0
  0
LINE
  8
0
 10
-33.418863
 20
73.111931
 30
0.0
 11
-32.918863
 21
73.611931
 31
0.0
  0
LINE
  8
0
 10
-32.918863
 20
73.611931
 30
0.0
 11
-43.918863
 21
73.611931
 31
0.0
  0
LINE
  8
0
 10
-45.168863
 20
77.111931
 30
0.0
 11
-31.668863
 21
77.111931
 31
0.0
  0
ARC
  8
0
 10
-45.168863
 20
77.611931
 30
0.0
 40
0.5
 50
180.0
 51
270.0
  0
ARC
  8
0
 10
108.818273
 20
112.291199
 30
0.0
 40
1.0
 50
17.554039
 51
63.872028
  0
ARC
  8
0
 10
102.844807
 20
112.291199
 30
0.0
 40
1.0
 50
116.127972
 51
162.445961
  0
ARC
  8
0
 10
105.83154
 20
106.202044
 30
0.0
 40
7.78221
 50
63.872028
 51
116.127972
  0
LINE
  8
0
 10
109.771706
 20
112.592804
 30
0.0
 11
114.526246
 21
97.562773
 31
0.0
  0
LINE
  8
0
 10
101.891374
 20
112.592804
 30
0.0
 11
97.136834
 21
97.562773
 31
0.0
  0
ARC
  8
0
 10
100.090482
 20
97.562773
 30
0.0
 40
0.608942
 50
138.90939
 51
180.0
  0
ARC
  8
0
 10
111.572598
 20
97.562773
 30
0.0
 40
0.608942
 50
0.0
 51
41.09061
  0
ARC
  8
0
 10
105.83154
 20
116.862048
 30
0.0
 40
21.032015
 50
259.076625
 51
280.923375
  0
ARC
  8
0
 10
111.519552
 20
97.582654
 30
0.0
 40
0.662286
 50
293.680404
 51
358.279804
  0
ARC
  8
0
 10
108.728798
 20
101.926402
 30
0.0
 40
5.817981
 50
280.7804
 51
301.694994
  0
ARC
  8
0
 10
102.934282
 20
101.926402
 30
0.0
 40
5.817981
 50
238.305006
 51
259.2196
  0
ARC
  8
0
 10
100.143528
 20
97.582654
 30
0.0
 40
0.662286
 50
181.720196
 51
246.319596
  0
ARC
  8
0
 10
105.83154
 20
124.245044
 30
0.0
 40
29.075939
 50
259.729336
 51
280.270664
  0
ARC
  8
0
 10
109.65827
 20
103.742325
 30
0.0
 40
8.220181
 50
279.505252
 51
301.807808
  0
ARC
  8
0
 10
113.615832
 20
97.586553
 30
0.0
 40
0.910725
 50
294.319747
 51
358.50379
  0
ARC
  8
0
 10
102.00481
 20
103.742325
 30
0.0
 40
8.220181
 50
238.192192
 51
260.494748
  0
ARC
  8
0
 10
98.047249
 20
97.586553
 30
0.0
 40
0.910725
 50
181.49621
 51
245.680253
  0
LINE
  8
0
 10
99.63154
 20
100.611931
 30
0.0
 11
112.03154
 21
100.611931
 31
0.0
  0
ARC
  8
0
 10
105.83154
 20
107.357242
 30
0.0
 40
25.372453
 50
256.526073
 51
283.473927
  0
ARC
  8
0
 10
109.742486
 20
90.847587
 30
0.0
 40
8.40606
 50
283.770394
 51
307.257847
  0
ARC
  8
0
 10
114.072823
 20
85.40253
 30
0.0
 40
1.458386
 50
301.348654
 51
359.415918
  0
ARC
  8
0
 10
101.920594
 20
90.847587
 30
0.0
 40
8.40606
 50
232.742153
 51
256.229606
  0
ARC
  8
0
 10
97.590258
 20
85.40253
 30
0.0
 40
1.458386
 50
180.584082
 51
238.651346
  0
ARC
  8
0
 10
114.33154
 20
79.611931
 30
0.0
 40
0.5
 50
270.0
 51
360.0
  0
LINE
  8
0
 10
114.526246
 20
97.562773
 30
0.0
 11
115.531133
 21
85.387663
 31
0.0
  0
LINE
  8
0
 10
114.83154
 20
79.611931
 30
0.0
 11
114.83154
 21
84.157043
 31
0.0
  0
LINE
  8
0
 10
99.58154
 20
73.111931
 30
0.0
 11
99.08154
 21
73.611931
 31
0.0
  0
LINE
  8
0
 10
99.08154
 20
73.611931
 30
0.0
 11
99.08154
 21
79.111931
 31
0.0
  0
LINE
  8
0
 10
112.08154
 20
73.111931
 30
0.0
 11
99.58154
 21
73.111931
 31
0.0
  0
LINE
  8
0
 10
112.58154
 20
73.611931
 30
0.0
 11
112.58154
 21
79.111931
 31
0.0
  0
LINE
  8
0
 10
112.08154
 20
73.111931
 30
0.0
 11
112.58154
 21
73.611931
 31
0.0
  0
LINE
  8
0
 10
112.58154
 20
73.611931
 30
0.0
 11
99.08154
 21
73.611931
 31
0.0
  0
LINE
  8
0
 10
99.63154
 20
97.162545
 30
0.0
 11
99.63154
 21
100.611931
 31
0.0
  0
LINE
  8
0
 10
112.03154
 20
97.162545
 30
0.0
 11
112.03154
 21
100.611931
 31
0.0
  0
LINE
  8
0
 10
100.63154
 20
101.611931
 30
0.0
 11
99.63154
 21
100.611931
 31
0.0
  0
LINE
  8
0
 10
111.03154
 20
101.611931
 30
0.0
 11
112.03154
 21
100.611931
 31
0.0
  0
LINE
  8
0
 10
100.63154
 20
101.611931
 30
0.0
 11
111.03154
 21
101.611931
 31
0.0
  0
LINE
  8
0
 10
96.83154
 20
79.611931
 30
0.0
 11
96.83154
 21
84.157043
 31
0.0
  0
LINE
  8
0
 10
97.136834
 20
97.562773
 30
0.0
 11
96.131947
 21
85.387663
 31
0.0
  0
ARC
  8
0
 10
97.33154
 20
79.611931
 30
0.0
 40
0.5
 50
180.0
 51
270.0
  0
LINE
  8
0
 10
97.331539
 20
79.111931
 30
0.0
 11
114.331544
 21
79.111931
 31
0.0
  0
LINE
  8
0
 10
-101.851979
 20
73.611931
 30
0.0
 11
-101.851979
 21
85.971682
 31
0.0
  0
LINE
  8
0
 10
18.708261
 20
73.711931
 30
0.0
 11
18.708261
 21
88.250536
 31
0.0
  0
LINE
  8
0
 10
92.521494
 20
-40.101617
 30
0.0
 11
92.521494
 21
-61.501617
 31
0.0
  0
LINE
  8
0
 10
115.521494
 20
-51.501617
 30
0.0
 11
115.521494
 21
-61.501617
 31
0.0
  0
LINE
  8
0
 10
93.021494
 20
-62.001617
 30
0.0
 11
115.021494
 21
-62.001617
 31
0.0
  0
LINE
  8
0
 10
92.521494
 20
-40.101617
 30
0.0
 11
94.171494
 21
-40.101617
 31
0.0
  0
LINE
  8
0
 10
93.271494
 20
-25.401617
 30
0.0
 11
101.921494
 21
-25.401617
 31
0.0
  0
LINE
  8
0
 10
94.171494
 20
-36.101617
 30
0.0
 11
94.171494
 21
-40.101617
 31
0.0
  0
LINE
  8
0
 10
94.321494
 20
-25.401617
 30
0.0
 11
94.321494
 21
-28.551617
 31
0.0
  0
LINE
  8
0
 10
95.521494
 20
-29.751617
 30
0.0
 11
95.521494
 21
-34.751617
 31
0.0
  0
LINE
  8
0
 10
95.521494
 20
-29.751617
 30
0.0
 11
94.321494
 21
-28.551617
 31
0.0
  0
LINE
  8
0
 10
94.171494
 20
-36.101617
 30
0.0
 11
95.521494
 21
-34.751617
 31
0.0
  0
LINE
  8
0
 10
95.253874
 20
-29.651617
 30
0.0
 11
95.253874
 21
-29.483997
 31
0.0
  0
LINE
  8
0
 10
90.130062
 20
-51.501617
 30
0.0
 11
92.521494
 21
-51.501617
 31
0.0
  0
LINE
  8
0
 10
92.421494
 20
-29.651617
 30
0.0
 11
92.421494
 21
-51.501617
 31
0.0
  0
LINE
  8
0
 10
92.421494
 20
-29.651617
 30
0.0
 11
95.253874
 21
-29.651617
 31
0.0
  0
LINE
  8
0
 10
93.849863
 20
-25.401617
 30
0.0
 11
93.849863
 21
-29.651617
 31
0.0
  0
LINE
  8
0
 10
89.130297
 20
-50.523278
 30
0.0
 11
89.021494
 21
-45.501617
 31
0.0
  0
LINE
  8
0
 10
88.161314
 20
-45.056768
 30
0.0
 11
89.888314
 21
-25.76389
 31
0.0
  0
ARC
  8
0
 10
90.130062
 20
-50.501617
 30
0.0
 40
1.0
 50
181.241214
 51
270.0
  0
ARC
  8
0
 10
117.912926
 20
-50.501617
 30
0.0
 40
1.0
 50
270.0
 51
358.758786
  0
LINE
  8
0
 10
118.912691
 20
-50.523278
 30
0.0
 11
119.259971
 21
-34.494983
 31
0.0
  0
LINE
  8
0
 10
117.912926
 20
-51.501617
 30
0.0
 11
104.021494
 21
-51.501617
 31
0.0
  0
LINE
  8
0
 10
104.021494
 20
-40.0417
 30
0.0
 11
211.357173
 21
-0.97214
 31
0.0
  0
ARC
  8
0
 10
88.659323
 20
-45.101347
 30
0.0
 40
0.5
 50
174.884808
 51
290.0
  0
LINE
  8
0
 10
211.958314
 20
0.299887
 30
0.0
 11
209.183273
 21
7.689527
 31
0.0
  0
ARC
  8
0
 10
211.015153
 20
-0.032447
 30
0.0
 40
1.0
 50
290.0
 51
19.410529
  0
LINE
  8
0
 10
207.977521
 20
8.300943
 30
0.0
 11
104.021494
 21
-20.801617
 31
0.0
  0
ARC
  8
0
 10
91.382341
 20
-25.897627
 30
0.0
 40
1.5
 50
105.639626
 51
174.884808
  0
ARC
  8
0
 10
208.247107
 20
7.337967
 30
0.0
 40
1.0
 50
20.582736
 51
105.639626
  0
LINE
  8
0
 10
94.521494
 20
-16.401617
 30
0.0
 11
102.821494
 21
-16.401617
 31
0.0
  0
LINE
  8
0
 10
93.271494
 20
-23.811087
 30
0.0
 11
93.271494
 21
-25.401617
 31
0.0
  0
LINE
  8
0
 10
93.521494
 20
-17.401617
 30
0.0
 11
93.521494
 21
-25.401617
 31
0.0
  0
LINE
  8
0
 10
93.521494
 20
-17.401617
 30
0.0
 11
94.521494
 21
-16.401617
 31
0.0
  0
LINE
  8
0
 10
114.521494
 20
-17.401617
 30
0.0
 11
114.521494
 21
-17.862135
 31
0.0
  0
LINE
  8
0
 10
114.521494
 20
-17.401617
 30
0.0
 11
113.521494
 21
-16.401617
 31
0.0
  0
LINE
  8
0
 10
93.521494
 20
-23.741099
 30
0.0
 11
90.977962
 21
-24.453163
 31
0.0
  0
LINE
  8
0
 10
101.521494
 20
-25.401617
 30
0.0
 11
101.521494
 21
-33.201617
 31
0.0
  0
LINE
  8
0
 10
101.921494
 20
-33.601617
 30
0.0
 11
104.021494
 21
-33.601617
 31
0.0
  0
LINE
  8
0
 10
101.921494
 20
-25.401617
 30
0.0
 11
101.921494
 21
-33.601617
 31
0.0
  0
CIRCLE
  8
0
 10
93.188657
 20
-39.451617
 30
0.0
 40
0.65
  0
CIRCLE
  8
0
 10
93.188657
 20
-30.301617
 30
0.0
 40
0.65
  0
CIRCLE
  8
0
 10
93.188657
 20
-34.876617
 30
0.0
 40
0.65
  0
LINE
  8
0
 10
102.821494
 20
-16.401617
 30
0.0
 11
102.821494
 21
-18.401617
 31
0.0
  0
LINE
  8
0
 10
105.221494
 20
-16.401617
 30
0.0
 11
105.221494
 21
-18.401617
 31
0.0
  0
LINE
  8
0
 10
102.821494
 20
-18.401617
 30
0.0
 11
105.221494
 21
-18.401617
 31
0.0
  0
LINE
  8
0
 10
105.221494
 20
-16.401617
 30
0.0
 11
113.521494
 21
-16.401617
 31
0.0
  0
LINE
  8
0
 10
92.521494
 20
-61.501617
 30
0.0
 11
93.021494
 21
-62.001617
 31
0.0
  0
LINE
  8
0
 10
115.021494
 20
-62.001617
 30
0.0
 11
115.521494
 21
-61.501617
 31
0.0
  0
LINE
  8
0
 10
115.521494
 20
-61.501617
 30
0.0
 11
104.021494
 21
-61.501617
 31
0.0
  0
LINE
  8
0
 10
96.021494
 20
-38.001617
 30
0.0
 11
96.021494
 21
-62.001617
 31
0.0
  0
LINE
  8
0
 10
97.021494
 20
-33.599693
 30
0.0
 11
97.021494
 21
-61.001617
 31
0.0
  0
LINE
  8
0
 10
101.521494
 20
-31.001617
 30
0.0
 11
97.021494
 21
-33.599693
 31
0.0
  0
LINE
  8
0
 10
96.021494
 20
-38.001617
 30
0.0
 11
104.021494
 21
-38.001617
 31
0.0
  0
LINE
  8
0
 10
101.921494
 20
-33.601617
 30
0.0
 11
101.521494
 21
-33.201617
 31
0.0
  0
LINE
  8
0
 10
252.19733
 20
-61.501617
 30
0.0
 11
229.19733
 21
-61.501617
 31
0.0
  0
LINE
  8
0
 10
251.69733
 20
-62.001617
 30
0.0
 11
252.19733
 21
-61.501617
 31
0.0
  0
LINE
  8
0
 10
229.19733
 20
-61.501617
 30
0.0
 11
229.69733
 21
-62.001617
 31
0.0
  0
LINE
  8
0
 10
230.19733
 20
-17.401617
 30
0.0
 11
231.19733
 21
-16.401617
 31
0.0
  0
LINE
  8
0
 10
230.19733
 20
-17.401617
 30
0.0
 11
230.19733
 21
-22.318429
 31
0.0
  0
LINE
  8
0
 10
231.19733
 20
-16.401617
 30
0.0
 11
250.19733
 21
-16.401617
 31
0.0
  0
LINE
  8
0
 10
254.588762
 20
-51.501617
 30
0.0
 11
226.805895
 21
-51.501617
 31
0.0
  0
LINE
  8
0
 10
255.588527
 20
-50.523278
 30
0.0
 11
255.790254
 21
-41.212813
 31
0.0
  0
ARC
  8
0
 10
254.588762
 20
-50.501617
 30
0.0
 40
1.0
 50
270.0
 51
358.758786
  0
ARC
  8
0
 10
226.805898
 20
-50.501617
 30
0.0
 40
1.0
 50
181.241214
 51
270.0
  0
LINE
  8
0
 10
225.286073
 20
-40.0417
 30
0.0
 11
227.008347
 21
-20.801617
 31
0.0
  0
LINE
  8
0
 10
225.806132
 20
-50.523278
 30
0.0
 11
225.604406
 21
-41.212813
 31
0.0
  0
LINE
  8
0
 10
229.69733
 20
-62.001617
 30
0.0
 11
251.69733
 21
-62.001617
 31
0.0
  0
LINE
  8
0
 10
252.19733
 20
-51.501617
 30
0.0
 11
252.19733
 21
-61.501617
 31
0.0
  0
LINE
  8
0
 10
229.19733
 20
-51.501617
 30
0.0
 11
229.19733
 21
-61.501617
 31
0.0
  0
ARC
  8
0
 10
239.871725
 20
-13.879717
 30
0.0
 40
31.732372
 50
251.380034
 51
271.490875
  0
ARC
  8
0
 10
227.647156
 20
-40.028731
 30
0.0
 40
2.361119
 50
180.31471
 51
233.841655
  0
ARC
  8
0
 10
233.776436
 20
-32.95014
 30
0.0
 40
11.718161
 50
230.063189
 51
250.16297
  0
ARC
  8
0
 10
240.254187
 20
14.5624
 30
0.0
 40
39.297259
 50
258.822495
 51
270.646118
  0
ARC
  8
0
 10
228.429152
 20
-20.801617
 30
0.0
 40
1.420804
 50
180.0
 51
231.065057
  0
ARC
  8
0
 10
234.689055
 20
-11.676556
 30
0.0
 40
12.482803
 50
235.039502
 51
260.535586
  0
LINE
  8
0
 10
233.471185
 20
5.723716
 30
0.0
 11
227.008347
 21
-20.801617
 31
0.0
  0
ARC
  8
0
 10
240.254187
 20
15.567191
 30
0.0
 40
39.297259
 50
258.822495
 51
270.646118
  0
ARC
  8
0
 10
234.689055
 20
-10.671766
 30
0.0
 40
12.482803
 50
248.320061
 51
260.535586
  0
ARC
  8
0
 10
230.18656
 20
-22.049157
 30
0.0
 40
0.247642
 50
87.507596
 51
243.907057
  0
ARC
  8
0
 10
240.69733
 20
-7.035749
 30
0.0
 40
15.373716
 50
66.73229
 51
113.26771
  0
ARC
  8
0
 10
235.41434
 20
5.250271
 30
0.0
 40
2.0
 50
113.26771
 51
166.306813
  0
LINE
  8
0
 10
247.923474
 20
5.723716
 30
0.0
 11
254.386312
 21
-20.801617
 31
0.0
  0
ARC
  8
0
 10
245.98032
 20
5.250271
 30
0.0
 40
2.0
 50
13.693187
 51
66.73229
  0
ARC
  8
0
 10
251.208099
 20
-22.049157
 30
0.0
 40
0.247642
 50
296.092943
 51
92.492404
  0
ARC
  8
0
 10
246.705604
 20
-10.671766
 30
0.0
 40
12.482803
 50
279.464414
 51
291.679939
  0
ARC
  8
0
 10
246.705604
 20
-11.676556
 30
0.0
 40
12.482803
 50
279.464414
 51
304.960498
  0
LINE
  8
0
 10
251.19733
 20
-17.401617
 30
0.0
 11
251.19733
 21
-22.318429
 31
0.0
  0
ARC
  8
0
 10
252.965508
 20
-20.801617
 30
0.0
 40
1.420804
 50
308.934943
 51
360.0
  0
LINE
  8
0
 10
256.108586
 20
-40.0417
 30
0.0
 11
254.386312
 21
-20.801617
 31
0.0
  0
LINE
  8
0
 10
251.19733
 20
-17.401617
 30
0.0
 11
250.19733
 21
-16.401617
 31
0.0
  0
ARC
  8
0
 10
247.618223
 20
-32.95014
 30
0.0
 40
11.718161
 50
289.83703
 51
309.936811
  0
ARC
  8
0
 10
253.747503
 20
-40.028731
 30
0.0
 40
2.361119
 50
306.158345
 51
359.68529
  0
ARC
  8
0
 10
241.522935
 20
-13.879717
 30
0.0
 40
31.732372
 50
268.509125
 51
288.619966
  0
ARC
  8
0
 10
241.140472
 20
14.5624
 30
0.0
 40
39.297259
 50
269.353882
 51
281.177505
  0
ARC
  8
0
 10
241.140472
 20
15.567191
 30
0.0
 40
39.297259
 50
269.353882
 51
281.177505
  0
LINE
  8
0
 10
88.830333
 20
-45.571194
 30
0.0
 11
89.021494
 21
-45.501617
 31
0.0
  0
LINE
  8
0
  6
CENTER
 10
104.021494
 20
-13.267062
 30
0.0
 11
104.021494
 21
-64.615913
 31
0.0
  0
ARC
  8
0
 10
104.021494
 20
-89.297946
 30
0.0
 40
9.5
 50
277.256747
 51
82.743253
  0
CIRCLE
  8
0
 10
104.021494
 20
-89.297946
 30
0.0
 40
10.75
  0
LINE
  8
0
 10
105.139388
 20
-103.294215
 30
0.0
 11
205.492857
 21
-95.278899
 31
0.0
  0
LINE
  8
0
 10
105.139388
 20
-75.301676
 30
0.0
 11
205.492857
 21
-83.316993
 31
0.0
  0
ARC
  8
0
 10
205.015153
 20
-89.297946
 30
0.0
 40
6.0
 50
274.566568
 51
85.433432
  0
LINE
  8
0
 10
105.430123
 20
-105.165857
 30
0.0
 11
205.634124
 21
-96.270526
 31
0.0
  0
LINE
  8
0
 10
105.430123
 20
-73.430035
 30
0.0
 11
205.634124
 21
-82.325365
 31
0.0
  0
ARC
  8
0
 10
205.015153
 20
-89.297946
 30
0.0
 40
7.0
 50
275.072975
 51
84.927025
  0
ARC
  8
0
 10
104.021494
 20
-89.297946
 30
0.0
 40
14.040842
 50
85.433426
 51
274.566572
  0
ARC
  8
0
 10
104.021494
 20
-89.297946
 30
0.0
 40
15.930312
 50
84.927025
 51
275.072983
  0
CIRCLE
  8
0
 10
104.021494
 20
-89.297946
 30
0.0
 40
10.5
  0
ARC
  8
0
 10
104.021494
 20
-89.297946
 30
0.0
 40
9.5
 50
97.256747
 51
262.743253
  0
LINE
  8
0
 10
102.821494
 20
-78.866742
 30
0.0
 11
102.821494
 21
-99.729149
 31
0.0
  0
LINE
  8
0
 10
105.221494
 20
-78.866742
 30
0.0
 11
105.221494
 21
-99.729149
 31
0.0
  0
LINE
  8
0
 10
114.521494
 20
-17.401617
 30
0.0
 11
105.221494
 21
-17.401617
 31
0.0
  0
INSERT
  8
0
  2
*X4
 10
82.085353
 20
247.882346
 30
0.0
  0
LINE
  8
0
 10
-98.998582
 20
-61.101617
 30
0.0
 11
-98.998582
 21
-39.453818
 31
0.0
  0
LINE
  8
0
 10
-95.998582
 20
-39.501617
 30
0.0
 11
-96.398582
 21
-39.101617
 31
0.0
  0
LINE
  8
0
 10
160.16828
 20
73.861931
 30
0.0
 11
160.16828
 21
91.807876
 31
0.0
  0
LINE
  8
0
 10
162.31828
 20
91.611931
 30
0.0
 11
161.91828
 21
92.011931
 31
0.0
  0
LINE
  8
0
 10
20.008261
 20
87.611931
 30
0.0
 11
19.608261
 21
88.011931
 31
0.0
  0
LINE
  8
0
 10
-101.001979
 20
85.111931
 30
0.0
 11
-101.351979
 21
85.461931
 31
0.0
  0
LINE
  8
0
 10
11.444498
 20
-61.501617
 30
0.0
 11
30.444498
 21
-61.501617
 31
0.0
  0
ARC
  8
0
 10
20.944498
 20
12.14447
 30
0.0
 40
43.474618
 50
263.752775
 51
276.247225
  0
ARC
  8
0
 10
24.034539
 20
-15.029315
 30
0.0
 40
16.126355
 50
275.839793
 51
298.662226
  0
ARC
  8
0
 10
31.278169
 20
-27.866083
 30
0.0
 40
1.40238
 50
290.507578
 51
358.548051
  0
ARC
  8
0
 10
17.854458
 20
-15.029315
 30
0.0
 40
16.126355
 50
241.337774
 51
264.160207
  0
ARC
  8
0
 10
10.610828
 20
-27.866083
 30
0.0
 40
1.40238
 50
181.451949
 51
249.492422
  0
ARC
  8
0
 10
26.295235
 20
-7.798799
 30
0.0
 40
1.25
 50
14.222875
 51
63.173005
  0
ARC
  8
0
 10
15.593762
 20
-7.798799
 30
0.0
 40
1.25
 50
116.826995
 51
165.777125
  0
ARC
  8
0
 10
20.944498
 20
-18.379068
 30
0.0
 40
13.106326
 50
63.173005
 51
116.826995
  0
ARC
  8
0
 10
17.465704
 20
-20.123481
 30
0.0
 40
9.966745
 50
237.805437
 51
258.997238
  0
ARC
  8
0
 10
12.687162
 20
-27.90403
 30
0.0
 40
0.842667
 50
151.802628
 51
230.878119
  0
LINE
  8
0
 10
27.506919
 20
-7.491681
 30
0.0
 11
32.680098
 21
-27.901617
 31
0.0
  0
LINE
  8
0
 10
14.382078
 20
-7.491681
 30
0.0
 11
9.208898
 21
-27.901617
 31
0.0
  0
ARC
  8
0
 10
20.944498
 20
5.75058
 30
0.0
 40
36.06133
 50
261.418372
 51
278.581628
  0
ARC
  8
0
 10
24.423292
 20
-20.123481
 30
0.0
 40
9.966745
 50
281.002762
 51
302.194563
  0
ARC
  8
0
 10
29.201834
 20
-27.90403
 30
0.0
 40
0.842667
 50
309.121881
 51
28.197372
  0
ARC
  8
0
 10
32.754498
 20
-43.866757
 30
0.0
 40
1.25
 50
307.29024
 51
4.757559
  0
ARC
  8
0
 10
9.134499
 20
-43.866757
 30
0.0
 40
1.25
 50
175.242441
 51
232.70976
  0
ARC
  8
0
 10
20.944498
 20
-28.358437
 30
0.0
 40
20.74318
 50
232.70976
 51
307.29024
  0
LINE
  8
0
 10
29.944498
 20
-62.001617
 30
0.0
 11
30.444498
 21
-61.501617
 31
0.0
  0
LINE
  8
0
 10
29.944498
 20
-62.001617
 30
0.0
 11
20.944498
 21
-62.001617
 31
0.0
  0
LINE
  8
0
 10
30.444498
 20
-61.501617
 30
0.0
 11
30.444498
 21
-53.001617
 31
0.0
  0
LINE
  8
0
 10
33.444498
 20
-52.001617
 30
0.0
 11
33.444498
 21
-44.912274
 31
0.0
  0
LINE
  8
0
 10
32.444498
 20
-53.001617
 30
0.0
 11
9.444496
 21
-53.001617
 31
0.0
  0
LINE
  8
0
 10
33.444498
 20
-48.755746
 30
0.0
 11
33.574051
 21
-48.800554
 31
0.0
  0
ARC
  8
0
 10
32.444498
 20
-52.001617
 30
0.0
 40
1.0
 50
270.0
 51
360.0
  0
LINE
  8
0
 10
32.680098
 20
-27.901617
 30
0.0
 11
34.000191
 21
-43.763082
 31
0.0
  0
ARC
  8
0
 10
9.444498
 20
-52.001617
 30
0.0
 40
1.0
 50
180.0
 51
270.0
  0
LINE
  8
0
 10
12.444498
 20
-23.601617
 30
0.0
 11
29.444498
 21
-23.601617
 31
0.0
  0
LINE
  8
0
 10
29.944498
 20
-24.101617
 30
0.0
 11
11.944498
 21
-24.101617
 31
0.0
  0
LINE
  8
0
 10
29.444498
 20
-23.601617
 30
0.0
 11
29.944498
 21
-24.101617
 31
0.0
  0
LINE
  8
0
 10
12.444498
 20
-23.601617
 30
0.0
 11
11.944498
 21
-24.101617
 31
0.0
  0
LINE
  8
0
 10
8.444498
 20
-48.755746
 30
0.0
 11
8.314945
 21
-48.800554
 31
0.0
  0
LINE
  8
0
 10
29.944498
 20
-28.3022
 30
0.0
 11
29.944498
 21
-24.101617
 31
0.0
  0
LINE
  8
0
 10
9.208898
 20
-27.901617
 30
0.0
 11
7.888805
 21
-43.763082
 31
0.0
  0
LINE
  8
0
 10
11.944498
 20
-28.3022
 30
0.0
 11
11.944498
 21
-24.101617
 31
0.0
  0
LINE
  8
0
 10
8.444498
 20
-52.001617
 30
0.0
 11
8.444498
 21
-44.912274
 31
0.0
  0
LINE
  8
0
 10
11.944498
 20
-62.001617
 30
0.0
 11
11.444498
 21
-61.501617
 31
0.0
  0
LINE
  8
0
 10
30.444498
 20
-61.501617
 30
0.0
 11
29.944498
 21
-62.001617
 31
0.0
  0
LINE
  8
0
 10
11.444498
 20
-61.501617
 30
0.0
 11
11.444498
 21
-53.001617
 31
0.0
  0
LINE
  8
0
 10
11.944498
 20
-62.001617
 30
0.0
 11
20.944498
 21
-62.001617
 31
0.0
  0
LINE
  8
0
 10
-101.851979
 20
73.611931
 30
0.0
 11
-99.351979
 21
73.611931
 31
0.0
  0
LINE
  8
0
 10
-102.351979
 20
73.111931
 30
0.0
 11
-101.851979
 21
73.611931
 31
0.0
  0
LINE
  8
0
 10
18.708261
 20
73.711931
 30
0.0
 11
22.108261
 21
73.711931
 31
0.0
  0
LINE
  8
0
 10
18.108261
 20
73.111931
 30
0.0
 11
18.708261
 21
73.711931
 31
0.0
  0
LINE
  8
0
 10
160.16828
 20
73.861931
 30
0.0
 11
164.41828
 21
73.861931
 31
0.0
  0
LINE
  8
0
 10
159.41828
 20
73.111931
 30
0.0
 11
160.16828
 21
73.861931
 31
0.0
  0
LINE
  8
0
 10
-98.998582
 20
-61.101617
 30
0.0
 11
-93.898582
 21
-61.101617
 31
0.0
  0
LINE
  8
0
 10
-99.898582
 20
-62.001617
 30
0.0
 11
-98.998582
 21
-61.101617
 31
0.0
  0
LINE
  8
0
 10
97.021494
 20
-61.001617
 30
0.0
 11
104.021494
 21
-61.001617
 31
0.0
  0
LINE
  8
0
 10
96.021494
 20
-62.001617
 30
0.0
 11
97.021494
 21
-61.001617
 31
0.0
  0
INSERT
  8
0
  2
*X5
 10
0.0
 20
0.0
 30
0.0
1001
ACAD
1000
HATCH
1002
{
1070
    16
1000
ANSI31
1040
8.0
1040
1.570796
1002
}
  0
INSERT
  8
0
  2
*X6
 10
0.0
 20
0.0
 30
0.0
1001
ACAD
1000
HATCH
1002
{
1070
    16
1000
ANSI31
1040
8.0
1040
1.570796
1002
}
  0
INSERT
  8
0
  2
*X7
 10
0.0
 20
0.0
 30
0.0
1001
ACAD
1000
HATCH
1002
{
1070
    16
1000
ANSI31
1040
8.0
1040
1.570796
1002
}
  0
INSERT
  8
0
  2
*X8
 10
0.0
 20
108.372725
 30
0.0
1001
ACAD
1000
HATCH
1002
{
1070
    16
1000
ANSI31
1040
8.0
1040
1.570796
1002
}
  0
INSERT
  8
0
  2
*X9
 10
0.0
 20
108.372725
 30
0.0
1001
ACAD
1000
HATCH
1002
{
1070
    16
1000
ANSI31
1040
10.0
1040
1.570796
1002
}
  0
ENDSEC
  0
EOF
