  0
SECTION
  2
HEADER
  9
$ACADVER
  1
AC1009
  9
$INSBASE
 10
0.0
 20
0.0
 30
0.0
  9
$EXTMIN
 10
-561.651331
 20
-420.821653
 30
0.0
  9
$EXTMAX
 10
78.058844
 20
-32.258161
 30
0.0
  9
$LIMMIN
 10
0.0
 20
0.0
  9
$LIMMAX
 10
12.0
 20
9.0
  9
$ORTHOMODE
 70
     1
  9
$REGENMODE
 70
     1
  9
$FILLMODE
 70
     1
  9
$QTEXTMODE
 70
     0
  9
$MIRRTEXT
 70
     1
  9
$DRAGMODE
 70
     2
  9
$LTSCALE
 40
4.0
  9
$OSMODE
 70
     0
  9
$ATTMODE
 70
     1
  9
$TEXTSIZE
 40
0.2
  9
$TRACEWID
 40
0.05
  9
$TEXTSTYLE
  7
STANDARD
  9
$CLAYER
  8
0
  9
$CELTYPE
  6
BYLAYER
  9
$CECOLOR
 62
   256
  9
$DIMSCALE
 40
1.0
  9
$DIMASZ
 40
2.5
  9
$DIMEXO
 40
0.0
  9
$DIMDLI
 40
5.0
  9
$DIMRND
 40
0.0
  9
$DIMDLE
 40
0.0
  9
$DIMEXE
 40
1.0
  9
$DIMTP
 40
0.0
  9
$DIMTM
 40
0.0
  9
$DIMTXT
 40
2.5
  9
$DIMCEN
 40
0.09
  9
$DIMTSZ
 40
0.0
  9
$DIMTOL
 70
     0
  9
$DIMLIM
 70
     0
  9
$DIMTIH
 70
     0
  9
$DIMTOH
 70
     0
  9
$DIMSE1
 70
     0
  9
$DIMSE2
 70
     0
  9
$DIMTAD
 70
     1
  9
$DIMZIN
 70
     0
  9
$DIMBLK
  1

  9
$DIMASO
 70
     0
  9
$DIMSHO
 70
     0
  9
$DIMPOST
  1

  9
$DIMAPOST
  1

  9
$DIMALT
 70
     0
  9
$DIMALTD
 70
     2
  9
$DIMALTF
 40
25.4
  9
$DIMLFAC
 40
1.0
  9
$DIMTOFL
 70
     1
  9
$DIMTVP
 40
0.0
  9
$DIMTIX
 70
     0
  9
$DIMSOXD
 70
     0
  9
$DIMSAH
 70
     0
  9
$DIMBLK1
  1

  9
$DIMBLK2
  1

  9
$DIMSTYLE
  2
*UNNAMED
  9
$DIMCLRD
 70
     0
  9
$DIMCLRE
 70
     0
  9
$DIMCLRT
 70
     0
  9
$DIMTFAC
 40
1.0
  9
$DIMGAP
 40
0.09
  9
$LUNITS
 70
     2
  9
$LUPREC
 70
     4
  9
$SKETCHINC
 40
0.1
  9
$FILLETRAD
 40
0.0
  9
$AUNITS
 70
     0
  9
$AUPREC
 70
     0
  9
$MENU
  1
wiberger
  9
$ELEVATION
 40
0.0
  9
$PELEVATION
 40
0.0
  9
$THICKNESS
 40
0.0
  9
$LIMCHECK
 70
     0
  9
$BLIPMODE
 70
     1
  9
$CHAMFERA
 40
0.0
  9
$CHAMFERB
 40
0.0
  9
$SKPOLY
 70
     0
  9
$TDCREATE
 40
2450191.376610185
  9
$TDUPDATE
 40
2450219.490438194
  9
$TDINDWG
 40
0.0006210648
  9
$TDUSRTIMER
 40
0.0006210648
  9
$USRTIMER
 70
     1
  9
$ANGBASE
 50
0.0
  9
$ANGDIR
 70
     0
  9
$PDMODE
 70
     0
  9
$PDSIZE
 40
0.0
  9
$PLINEWID
 40
0.0
  9
$COORDS
 70
     0
  9
$SPLFRAME
 70
     0
  9
$SPLINETYPE
 70
     6
  9
$SPLINESEGS
 70
     8
  9
$ATTDIA
 70
     0
  9
$ATTREQ
 70
     1
  9
$HANDLING
 70
     0
  9
$HANDSEED
  5
0
  9
$SURFTAB1
 70
     6
  9
$SURFTAB2
 70
     6
  9
$SURFTYPE
 70
     6
  9
$SURFU
 70
     6
  9
$SURFV
 70
     6
  9
$UCSNAME
  2

  9
$UCSORG
 10
0.0
 20
0.0
 30
0.0
  9
$UCSXDIR
 10
1.0
 20
0.0
 30
0.0
  9
$UCSYDIR
 10
0.0
 20
1.0
 30
0.0
  9
$PUCSNAME
  2

  9
$PUCSORG
 10
0.0
 20
0.0
 30
0.0
  9
$PUCSXDIR
 10
1.0
 20
0.0
 30
0.0
  9
$PUCSYDIR
 10
0.0
 20
1.0
 30
0.0
  9
$USERI1
 70
     0
  9
$USERI2
 70
     0
  9
$USERI3
 70
     0
  9
$USERI4
 70
     0
  9
$USERI5
 70
     0
  9
$USERR1
 40
0.0
  9
$USERR2
 40
0.0
  9
$USERR3
 40
0.0
  9
$USERR4
 40
0.0
  9
$USERR5
 40
0.0
  9
$WORLDVIEW
 70
     1
  9
$SHADEDGE
 70
     3
  9
$SHADEDIF
 70
    70
  9
$TILEMODE
 70
     1
  9
$MAXACTVP
 70
    16
  9
$PINSBASE
 10
0.0
 20
0.0
 30
0.0
  9
$PLIMCHECK
 70
     0
  9
$PEXTMIN
 10
1.000000E+20
 20
1.000000E+20
 30
1.000000E+20
  9
$PEXTMAX
 10
-1.000000E+20
 20
-1.000000E+20
 30
-1.000000E+20
  9
$PLIMMIN
 10
0.0
 20
0.0
  9
$PLIMMAX
 10
12.0
 20
9.0
  9
$UNITMODE
 70
     0
  9
$VISRETAIN
 70
     0
  9
$PLINEGEN
 70
     0
  9
$PSLTSCALE
 70
     0
  9
$TREEDEPTH
 70
  3020
  9
$DWGCODEPAGE
  3
undefined
  0
ENDSEC
  0
SECTION
  2
TABLES
  0
TABLE
  2
VPORT
 70
     2
  0
VPORT
  2
*ACTIVE
 70
     0
 10
0.0
 20
0.0
 11
1.0
 21
1.0
 12
-144.431541
 22
-218.742264
 13
0.0
 23
0.0
 14
1.0
 24
1.0
 15
0.0
 25
0.0
 16
0.0
 26
0.0
 36
1.0
 17
0.0
 27
0.0
 37
0.0
 40
512.313946
 41
1.767507
 42
50.0
 43
0.0
 44
0.0
 50
0.0
 51
0.0
 71
     0
 72
   100
 73
     1
 74
     0
 75
     0
 76
     0
 77
     0
 78
     0
  0
ENDTAB
  0
TABLE
  2
LTYPE
 70
     2
  0
LTYPE
  2
CONTINUOUS
 70
    64
  3
Solid line
 72
    65
 73
     0
 40
0.0
  0
LTYPE
  2
CENTER
 70
    64
  3
____ _ ____ _ ____ _ ____ _ ____ _ ____ _ ____
 72
    65
 73
     4
 40
2.0
 49
1.25
 49
-0.25
 49
0.25
 49
-0.25
  0
ENDTAB
  0
TABLE
  2
LAYER
 70
     1
  0
LAYER
  2
0
 70
    64
 62
     7
  6
CONTINUOUS
  0
ENDTAB
  0
TABLE
  2
STYLE
 70
     1
  0
STYLE
  2
STANDARD
 70
     0
 40
0.0
 41
1.0
 50
0.0
 71
     0
 42
0.2
  3
txt
  4

  0
ENDTAB
  0
TABLE
  2
VIEW
 70
     0
  0
ENDTAB
  0
TABLE
  2
UCS
 70
     0
  0
ENDTAB
  0
TABLE
  2
APPID
 70
     1
  0
APPID
  2
ACAD
 70
    64
  0
ENDTAB
  0
TABLE
  2
DIMSTYLE
 70
     0
  0
ENDTAB
  0
ENDSEC
  0
SECTION
  2
BLOCKS
  0
BLOCK
  8
0
  2
*X0
 70
    65
 10
0.0
 20
0.0
 30
0.0
  3
*X
  0
LINE
  8
0
 62
     0
 10
-335.822672
 20
-47.323106
 30
0.0
 11
-328.000202
 21
-39.500635
 31
0.0
  0
LINE
  8
0
 62
     0
 10
-338.715063
 20
-47.387069
 30
0.0
 11
-328.374197
 21
-37.046203
 31
0.0
  0
LINE
  8
0
 62
     0
 10
-345.989779
 20
-51.833358
 30
0.0
 11
-333.966764
 21
-39.810343
 31
0.0
  0
LINE
  8
0
 62
     0
 10
-349.530999
 20
-52.54615
 30
0.0
 11
-336.733995
 21
-39.749147
 31
0.0
  0
LINE
  8
0
 62
     0
 10
-352.004145
 20
-52.19087
 30
0.0
 11
-339.501227
 21
-39.687952
 31
0.0
  0
LINE
  8
0
 62
     0
 10
-353.98874
 20
-51.347038
 30
0.0
 11
-341.699367
 21
-39.057665
 31
0.0
  0
LINE
  8
0
 62
     0
 10
-355.617628
 20
-50.147498
 30
0.0
 11
-342.898907
 21
-37.428777
 31
0.0
  0
LINE
  8
0
 62
     0
 10
-356.92754
 20
-48.628983
 30
0.0
 11
-344.417422
 21
-36.118865
 31
0.0
  0
LINE
  8
0
 62
     0
 10
-357.901336
 20
-46.774352
 30
0.0
 11
-346.272053
 21
-35.145069
 31
0.0
  0
LINE
  8
0
 62
     0
 10
-358.450085
 20
-44.494674
 30
0.0
 11
-348.551731
 21
-34.59632
 31
0.0
  0
LINE
  8
0
 62
     0
 10
-358.258569
 20
-41.474731
 30
0.0
 11
-351.571673
 21
-34.787835
 31
0.0
  0
LINE
  8
0
 62
     0
 10
-332.930282
 20
-47.259143
 30
0.0
 11
-328.000202
 21
-42.329062
 31
0.0
  0
LINE
  8
0
 62
     0
 10
-331.02203
 20
-48.179318
 30
0.0
 11
-328.000202
 21
-45.157489
 31
0.0
  0
LINE
  8
0
 62
     0
 10
-329.667653
 20
-49.653367
 30
0.0
 11
-328.000202
 21
-47.985916
 31
0.0
  0
ENDBLK
  8
0
  0
BLOCK
  8
0
  2
*X1
 70
    65
 10
0.0
 20
0.0
 30
0.0
  3
*X
  0
LINE
  8
0
 62
     0
 10
-236.470818
 20
-80.907326
 30
0.0
 11
-226.135932
 21
-70.57244
 31
0.0
  0
LINE
  8
0
 62
     0
 10
-239.392295
 20
-81.000376
 30
0.0
 11
-226.135932
 21
-67.744013
 31
0.0
  0
LINE
  8
0
 62
     0
 10
-246.665611
 20
-85.445265
 30
0.0
 11
-232.570704
 21
-71.350358
 31
0.0
  0
LINE
  8
0
 62
     0
 10
-250.115485
 20
-86.066711
 30
0.0
 11
-235.311826
 21
-71.263053
 31
0.0
  0
LINE
  8
0
 62
     0
 10
-252.628346
 20
-85.751146
 30
0.0
 11
-238.052948
 21
-71.175747
 31
0.0
  0
LINE
  8
0
 62
     0
 10
-254.6802
 20
-84.974573
 30
0.0
 11
-240.794069
 21
-71.088442
 31
0.0
  0
LINE
  8
0
 62
     0
 10
-256.397643
 20
-83.863589
 30
0.0
 11
-242.339076
 21
-69.805021
 31
0.0
  0
LINE
  8
0
 62
     0
 10
-257.824011
 20
-82.46153
 30
0.0
 11
-243.741135
 21
-68.378653
 31
0.0
  0
LINE
  8
0
 62
     0
 10
-258.960874
 20
-80.769965
 30
0.0
 11
-245.432699
 21
-67.24179
 31
0.0
  0
LINE
  8
0
 62
     0
 10
-259.769239
 20
-78.749903
 30
0.0
 11
-247.452762
 21
-66.433426
 31
0.0
  0
LINE
  8
0
 62
     0
 10
-260.133533
 20
-76.28577
 30
0.0
 11
-249.916895
 21
-66.069131
 31
0.0
  0
LINE
  8
0
 62
     0
 10
-259.643479
 20
-72.967289
 30
0.0
 11
-253.235376
 21
-66.559185
 31
0.0
  0
LINE
  8
0
 62
     0
 10
-233.549341
 20
-80.814276
 30
0.0
 11
-226.135932
 21
-73.400867
 31
0.0
  0
LINE
  8
0
 62
     0
 10
-230.627864
 20
-80.721226
 30
0.0
 11
-226.135932
 21
-76.229294
 31
0.0
  0
LINE
  8
0
 62
     0
 10
-229.33898
 20
-82.26077
 30
0.0
 11
-226.135932
 21
-79.057721
 31
0.0
  0
LINE
  8
0
 62
     0
 10
-227.881855
 20
-83.632072
 30
0.0
 11
-226.135932
 21
-81.886149
 31
0.0
  0
ENDBLK
  8
0
  0
BLOCK
  8
0
  2
*X2
 70
    65
 10
0.0
 20
0.0
 30
0.0
  3
*X
  0
LINE
  8
0
 62
     0
 10
-337.702685
 20
-153.854922
 30
0.0
 11
-323.611006
 21
-139.763243
 31
0.0
  0
LINE
  8
0
 62
     0
 10
-340.603672
 20
-153.927482
 30
0.0
 11
-329.551632
 21
-142.875442
 31
0.0
  0
LINE
  8
0
 62
     0
 10
-343.50466
 20
-154.000042
 30
0.0
 11
-332.31104
 21
-142.806422
 31
0.0
  0
LINE
  8
0
 62
     0
 10
-351.413624
 20
-159.08058
 30
0.0
 11
-335.070448
 21
-142.737403
 31
0.0
  0
LINE
  8
0
 62
     0
 10
-354.381706
 20
-159.220234
 30
0.0
 11
-337.829856
 21
-142.668384
 31
0.0
  0
LINE
  8
0
 62
     0
 10
-356.737699
 20
-158.747801
 30
0.0
 11
-340.589263
 21
-142.599365
 31
0.0
  0
LINE
  8
0
 62
     0
 10
-358.716781
 20
-157.898456
 30
0.0
 11
-343.348671
 21
-142.530346
 31
0.0
  0
LINE
  8
0
 62
     0
 10
-360.401897
 20
-156.755144
 30
0.0
 11
-344.918028
 21
-141.271275
 31
0.0
  0
LINE
  8
0
 62
     0
 10
-361.823936
 20
-155.348756
 30
0.0
 11
-346.324416
 21
-139.849236
 31
0.0
  0
LINE
  8
0
 62
     0
 10
-362.983722
 20
-153.680114
 30
0.0
 11
-347.993058
 21
-138.689451
 31
0.0
  0
LINE
  8
0
 62
     0
 10
-363.852512
 20
-151.720477
 30
0.0
 11
-349.952695
 21
-137.820661
 31
0.0
  0
LINE
  8
0
 62
     0
 10
-364.351918
 20
-149.391457
 30
0.0
 11
-352.281715
 21
-137.321254
 31
0.0
  0
LINE
  8
0
 62
     0
 10
-364.263544
 20
-146.474655
 30
0.0
 11
-355.198517
 21
-137.409628
 31
0.0
  0
LINE
  8
0
 62
     0
 10
-361.96066
 20
-141.343344
 30
0.0
 11
-360.329828
 21
-139.712513
 31
0.0
  0
LINE
  8
0
 62
     0
 10
-334.801697
 20
-153.782361
 30
0.0
 11
-323.409929
 21
-142.390593
 31
0.0
  0
LINE
  8
0
 62
     0
 10
-331.90071
 20
-153.709801
 30
0.0
 11
-323.409929
 21
-145.21902
 31
0.0
  0
LINE
  8
0
 62
     0
 10
-328.999722
 20
-153.63724
 30
0.0
 11
-323.409929
 21
-148.047447
 31
0.0
  0
LINE
  8
0
 62
     0
 10
-327.140573
 20
-154.606518
 30
0.0
 11
-323.409929
 21
-150.875874
 31
0.0
  0
LINE
  8
0
 62
     0
 10
-325.723662
 20
-156.018034
 30
0.0
 11
-323.409929
 21
-153.704302
 31
0.0
  0
LINE
  8
0
 62
     0
 10
-323.640444
 20
-156.763243
 30
0.0
 11
-323.409929
 21
-156.532729
 31
0.0
  0
ENDBLK
  8
0
  0
BLOCK
  8
0
  2
*X3
 70
    65
 10
0.0
 20
0.0
 30
0.0
  3
*X
  0
LINE
  8
0
 62
     0
 10
-128.120151
 20
-170.546558
 30
0.0
 11
-115.641346
 21
-158.067752
 31
0.0
  0
LINE
  8
0
 62
     0
 10
-136.635496
 20
-175.526368
 30
0.0
 11
-119.079642
 21
-157.970515
 31
0.0
  0
LINE
  8
0
 62
     0
 10
-141.265058
 20
-176.620397
 30
0.0
 11
-122.517939
 21
-157.873278
 31
0.0
  0
LINE
  8
0
 62
     0
 10
-144.507921
 20
-176.327726
 30
0.0
 11
-125.956235
 21
-157.77604
 31
0.0
  0
LINE
  8
0
 62
     0
 10
-147.136852
 20
-175.421124
 30
0.0
 11
-129.394531
 21
-157.678803
 31
0.0
  0
LINE
  8
0
 62
     0
 10
-149.334873
 20
-174.083611
 30
0.0
 11
-131.819584
 21
-156.568321
 31
0.0
  0
LINE
  8
0
 62
     0
 10
-151.16527
 20
-172.378473
 30
0.0
 11
-133.524721
 21
-154.737924
 31
0.0
  0
LINE
  8
0
 62
     0
 10
-152.63615
 20
-170.31382
 30
0.0
 11
-135.589374
 21
-153.267044
 31
0.0
  0
LINE
  8
0
 62
     0
 10
-153.706706
 20
-167.848842
 30
0.0
 11
-138.054352
 21
-152.196488
 31
0.0
  0
LINE
  8
0
 62
     0
 10
-154.251322
 20
-164.857923
 30
0.0
 11
-141.045271
 21
-151.651873
 31
0.0
  0
LINE
  8
0
 62
     0
 10
-153.854627
 20
-160.925695
 30
0.0
 11
-144.9775
 21
-152.048568
 31
0.0
  0
LINE
  8
0
 62
     0
 10
-124.48172
 20
-170.443661
 30
0.0
 11
-112.203049
 21
-158.16499
 31
0.0
  0
LINE
  8
0
 62
     0
 10
-120.843288
 20
-170.340763
 30
0.0
 11
-105.772494
 21
-155.269968
 31
0.0
  0
LINE
  8
0
 62
     0
 10
-117.204857
 20
-170.237866
 30
0.0
 11
-105.772494
 21
-158.805502
 31
0.0
  0
LINE
  8
0
 62
     0
 10
-113.566426
 20
-170.134968
 30
0.0
 11
-105.772494
 21
-162.341036
 31
0.0
  0
LINE
  8
0
 62
     0
 10
-110.366846
 20
-170.470922
 30
0.0
 11
-105.772494
 21
-165.87657
 31
0.0
  0
LINE
  8
0
 62
     0
 10
-108.762303
 20
-172.401913
 30
0.0
 11
-105.772494
 21
-169.412104
 31
0.0
  0
LINE
  8
0
 62
     0
 10
-106.705556
 20
-173.8807
 30
0.0
 11
-105.772494
 21
-172.947638
 31
0.0
  0
ENDBLK
  8
0
  0
BLOCK
  8
0
  2
*X4
 70
    65
 10
0.0
 20
0.0
 30
0.0
  3
*X
  0
LINE
  8
0
 62
     0
 10
-260.56061
 20
-281.773813
 30
0.0
 11
-247.091035
 21
-268.304238
 31
0.0
  0
LINE
  8
0
 62
     0
 10
-264.173502
 20
-281.851171
 30
0.0
 11
-250.552454
 21
-268.230123
 31
0.0
  0
LINE
  8
0
 62
     0
 10
-274.094585
 20
-288.236721
 30
0.0
 11
-254.013873
 21
-268.156008
 31
0.0
  0
LINE
  8
0
 62
     0
 10
-278.288137
 20
-288.894739
 30
0.0
 11
-257.475291
 21
-268.081893
 31
0.0
  0
LINE
  8
0
 62
     0
 10
-281.46884
 20
-288.539908
 30
0.0
 11
-260.93671
 21
-268.007778
 31
0.0
  0
LINE
  8
0
 62
     0
 10
-284.112319
 20
-287.647852
 30
0.0
 11
-264.398129
 21
-267.933663
 31
0.0
  0
LINE
  8
0
 62
     0
 10
-286.364436
 20
-286.364436
 30
0.0
 11
-266.866874
 21
-266.866874
 31
0.0
  0
LINE
  8
0
 62
     0
 10
-288.282806
 20
-284.747272
 30
0.0
 11
-268.484038
 21
-264.948505
 31
0.0
  0
LINE
  8
0
 62
     0
 10
-289.882934
 20
-282.811866
 30
0.0
 11
-270.419444
 21
-263.348376
 31
0.0
  0
LINE
  8
0
 62
     0
 10
-291.147495
 20
-280.540893
 30
0.0
 11
-272.690417
 21
-262.083816
 31
0.0
  0
LINE
  8
0
 62
     0
 10
-292.015888
 20
-277.873752
 30
0.0
 11
-275.357558
 21
-261.215422
 31
0.0
  0
LINE
  8
0
 62
     0
 10
-292.334465
 20
-274.656795
 30
0.0
 11
-278.574515
 21
-260.896846
 31
0.0
  0
LINE
  8
0
 62
     0
 10
-291.586099
 20
-270.372895
 30
0.0
 11
-282.858415
 21
-261.645212
 31
0.0
  0
LINE
  8
0
 62
     0
 10
-256.947717
 20
-281.696455
 30
0.0
 11
-243.629616
 21
-268.378353
 31
0.0
  0
LINE
  8
0
 62
     0
 10
-253.334825
 20
-281.619096
 30
0.0
 11
-240.168197
 21
-268.452468
 31
0.0
  0
LINE
  8
0
 62
     0
 10
-238.480822
 20
-266.765093
 30
0.0
 11
-236.466217
 21
-264.750488
 31
0.0
  0
LINE
  8
0
 62
     0
 10
-249.721933
 20
-281.541738
 30
0.0
 11
-234.336488
 21
-266.156293
 31
0.0
  0
LINE
  8
0
 62
     0
 10
-246.109041
 20
-281.46438
 30
0.0
 11
-234.336488
 21
-269.691827
 31
0.0
  0
LINE
  8
0
 62
     0
 10
-242.496148
 20
-281.387021
 30
0.0
 11
-234.336488
 21
-273.227361
 31
0.0
  0
LINE
  8
0
 62
     0
 10
-239.359672
 20
-281.786079
 30
0.0
 11
-234.336488
 21
-276.762895
 31
0.0
  0
LINE
  8
0
 62
     0
 10
-237.822235
 20
-283.784176
 30
0.0
 11
-234.336488
 21
-280.298429
 31
0.0
  0
LINE
  8
0
 62
     0
 10
-235.941077
 20
-285.438552
 30
0.0
 11
-234.336488
 21
-283.833963
 31
0.0
  0
ENDBLK
  8
0
  0
BLOCK
  8
0
  2
*X5
 70
    65
 10
0.0
 20
0.0
 30
0.0
  3
*X
  0
LINE
  8
0
 62
     0
 10
-359.368609
 20
-59.555334
 30
0.0
 11
-351.195977
 21
-51.382702
 31
0.0
  0
LINE
  8
0
 62
     0
 10
-350.930948
 20
-51.117673
 30
0.0
 11
-347.695977
 21
-47.882702
 31
0.0
  0
LINE
  8
0
 62
     0
 10
-362.260999
 20
-59.619297
 30
0.0
 11
-351.240451
 21
-48.598749
 31
0.0
  0
LINE
  8
0
 62
     0
 10
-369.742352
 20
-64.272222
 30
0.0
 11
-357.497548
 21
-52.027418
 31
0.0
  0
LINE
  8
0
 62
     0
 10
-373.061806
 20
-64.763249
 30
0.0
 11
-360.26478
 21
-51.966223
 31
0.0
  0
LINE
  8
0
 62
     0
 10
-375.462061
 20
-64.335078
 30
0.0
 11
-363.032012
 21
-51.905028
 31
0.0
  0
LINE
  8
0
 62
     0
 10
-377.39933
 20
-63.443919
 30
0.0
 11
-365.022746
 21
-51.067335
 31
0.0
  0
LINE
  8
0
 62
     0
 10
-378.988819
 20
-62.204981
 30
0.0
 11
-366.261683
 21
-49.477845
 31
0.0
  0
LINE
  8
0
 62
     0
 10
-380.259999
 20
-60.647734
 30
0.0
 11
-367.818931
 21
-48.206666
 31
0.0
  0
LINE
  8
0
 62
     0
 10
-381.189102
 20
-58.74841
 30
0.0
 11
-369.718255
 21
-47.277563
 31
0.0
  0
LINE
  8
0
 62
     0
 10
-381.673631
 20
-56.404512
 30
0.0
 11
-372.062153
 21
-46.793034
 31
0.0
  0
LINE
  8
0
 62
     0
 10
-381.330904
 20
-53.233357
 30
0.0
 11
-375.233307
 21
-47.135761
 31
0.0
  0
LINE
  8
0
 62
     0
 10
-356.476219
 20
-59.491371
 30
0.0
 11
-351.195977
 21
-54.211129
 31
0.0
  0
LINE
  8
0
 62
     0
 10
-354.357308
 20
-60.200887
 30
0.0
 11
-351.195977
 21
-57.039556
 31
0.0
  0
LINE
  8
0
 62
     0
 10
-353.046295
 20
-61.718301
 30
0.0
 11
-351.195977
 21
-59.867983
 31
0.0
  0
ENDBLK
  8
0
  0
BLOCK
  8
0
  2
*X6
 70
    65
 10
0.0
 20
0.0
 30
0.0
  3
*X
  0
LINE
  8
0
 62
     0
 10
-41.772937
 20
-50.258218
 30
0.0
 11
-28.370723
 21
-36.856004
 31
0.0
  0
LINE
  8
0
 62
     0
 10
-49.259241
 20
-54.916096
 30
0.0
 11
-34.921659
 21
-40.578514
 31
0.0
  0
LINE
  8
0
 62
     0
 10
-52.471337
 20
-55.299764
 30
0.0
 11
-37.662781
 21
-40.491208
 31
0.0
  0
LINE
  8
0
 62
     0
 10
-54.892505
 20
-54.892505
 30
0.0
 11
-40.403902
 21
-40.403902
 31
0.0
  0
LINE
  8
0
 62
     0
 10
-56.883849
 20
-54.055421
 30
0.0
 11
-43.145024
 21
-40.316597
 31
0.0
  0
LINE
  8
0
 62
     0
 10
-58.551717
 20
-52.894863
 30
0.0
 11
-44.450086
 21
-38.793232
 31
0.0
  0
LINE
  8
0
 62
     0
 10
-59.931283
 20
-51.446002
 30
0.0
 11
-45.898947
 21
-37.413666
 31
0.0
  0
LINE
  8
0
 62
     0
 10
-61.018068
 20
-49.704359
 30
0.0
 11
-47.64059
 21
-36.326882
 31
0.0
  0
LINE
  8
0
 62
     0
 10
-61.764493
 20
-47.622357
 30
0.0
 11
-49.722593
 21
-35.580457
 31
0.0
  0
LINE
  8
0
 62
     0
 10
-62.032636
 20
-45.062073
 30
0.0
 11
-52.282876
 21
-35.312314
 31
0.0
  0
LINE
  8
0
 62
     0
 10
-61.269573
 20
-41.470583
 30
0.0
 11
-55.874366
 21
-36.075376
 31
0.0
  0
LINE
  8
0
 62
     0
 10
-38.85146
 20
-50.165168
 30
0.0
 11
-24.507261
 21
-35.82097
 31
0.0
  0
LINE
  8
0
 62
     0
 10
-35.929983
 20
-50.072118
 30
0.0
 11
-28.035691
 21
-42.177827
 31
0.0
  0
LINE
  8
0
 62
     0
 10
-33.008506
 20
-49.979068
 30
0.0
 11
-28.035691
 21
-45.006254
 31
0.0
  0
LINE
  8
0
 62
     0
 10
-31.449911
 20
-51.248901
 30
0.0
 11
-28.035691
 21
-47.834681
 31
0.0
  0
LINE
  8
0
 62
     0
 10
-30.042087
 20
-52.669504
 30
0.0
 11
-28.035691
 21
-50.663108
 31
0.0
  0
LINE
  8
0
 62
     0
 10
-28.328293
 20
-53.784137
 30
0.0
 11
-28.035691
 21
-53.491535
 31
0.0
  0
ENDBLK
  8
0
  0
BLOCK
  8
0
  2
*X7
 70
    65
 10
0.0
 20
0.0
 30
0.0
  3
*X
  0
LINE
  8
0
 62
     0
 10
-329.992992
 20
-171.601073
 30
0.0
 11
-314.687271
 21
-156.295352
 31
0.0
  0
LINE
  8
0
 62
     0
 10
-332.893979
 20
-171.673633
 30
0.0
 11
-321.875312
 21
-160.654966
 31
0.0
  0
LINE
  8
0
 62
     0
 10
-335.794967
 20
-171.746194
 30
0.0
 11
-324.63472
 21
-160.585947
 31
0.0
  0
LINE
  8
0
 62
     0
 10
-343.525886
 20
-176.648685
 30
0.0
 11
-327.394128
 21
-160.516928
 31
0.0
  0
LINE
  8
0
 62
     0
 10
-346.726785
 20
-177.021158
 30
0.0
 11
-330.153536
 21
-160.447908
 31
0.0
  0
LINE
  8
0
 62
     0
 10
-349.195266
 20
-176.661211
 30
0.0
 11
-332.912944
 21
-160.378889
 31
0.0
  0
LINE
  8
0
 62
     0
 10
-351.252814
 20
-175.890332
 30
0.0
 11
-335.672352
 21
-160.30987
 31
0.0
  0
LINE
  8
0
 62
     0
 10
-353.003096
 20
-174.812187
 30
0.0
 11
-337.598369
 21
-159.40746
 31
0.0
  0
LINE
  8
0
 62
     0
 10
-354.486079
 20
-173.466743
 30
0.0
 11
-338.943813
 21
-157.924477
 31
0.0
  0
LINE
  8
0
 62
     0
 10
-355.709042
 20
-171.861279
 30
0.0
 11
-340.549277
 21
-156.701514
 31
0.0
  0
LINE
  8
0
 62
     0
 10
-356.651026
 20
-169.974835
 30
0.0
 11
-342.43572
 21
-155.75953
 31
0.0
  0
LINE
  8
0
 62
     0
 10
-357.249075
 20
-167.744458
 30
0.0
 11
-344.666098
 21
-155.16148
 31
0.0
  0
LINE
  8
0
 62
     0
 10
-357.336368
 20
-165.003324
 30
0.0
 11
-347.407232
 21
-155.074188
 31
0.0
  0
LINE
  8
0
 62
     0
 10
-356.175792
 20
-161.014321
 30
0.0
 11
-351.396235
 21
-156.234763
 31
0.0
  0
LINE
  8
0
 62
     0
 10
-327.092004
 20
-171.528512
 30
0.0
 11
-316.384057
 21
-160.820566
 31
0.0
  0
LINE
  8
0
 62
     0
 10
-313.322262
 20
-157.75877
 30
0.0
 11
-312.384057
 21
-156.820566
 31
0.0
  0
LINE
  8
0
 62
     0
 10
-324.191017
 20
-171.455952
 30
0.0
 11
-316.384057
 21
-163.648993
 31
0.0
  0
LINE
  8
0
 62
     0
 10
-321.290029
 20
-171.383392
 30
0.0
 11
-316.384057
 21
-166.47742
 31
0.0
  0
LINE
  8
0
 62
     0
 10
-319.806264
 20
-172.728054
 30
0.0
 11
-316.384057
 21
-169.305847
 31
0.0
  0
LINE
  8
0
 62
     0
 10
-318.322259
 20
-174.072476
 30
0.0
 11
-316.384057
 21
-172.134274
 31
0.0
  0
ENDBLK
  8
0
  0
BLOCK
  8
0
  2
*X8
 70
    65
 10
0.0
 20
0.0
 30
0.0
  3
*X
  0
LINE
  8
0
 62
     0
 10
74.629185
 20
-169.322655
 30
0.0
 11
86.868751
 21
-157.083088
 31
0.0
  0
LINE
  8
0
 62
     0
 10
70.990753
 20
-169.425552
 30
0.0
 11
83.430455
 21
-156.985851
 31
0.0
  0
LINE
  8
0
 62
     0
 10
63.248496
 20
-173.632275
 30
0.0
 11
67.229982
 21
-169.65079
 31
0.0
  0
LINE
  8
0
 62
     0
 10
67.352322
 20
-169.52845
 30
0.0
 11
79.992158
 21
-156.888613
 31
0.0
  0
LINE
  8
0
 62
     0
 10
57.878161
 20
-175.467077
 30
0.0
 11
76.553862
 21
-156.791376
 31
0.0
  0
LINE
  8
0
 62
     0
 10
54.467877
 20
-175.341826
 30
0.0
 11
73.115566
 21
-156.694138
 31
0.0
  0
LINE
  8
0
 62
     0
 10
51.739642
 20
-174.534528
 30
0.0
 11
69.677269
 21
-156.596901
 31
0.0
  0
LINE
  8
0
 62
     0
 10
49.464646
 20
-173.27399
 30
0.0
 11
66.871696
 21
-155.86694
 31
0.0
  0
LINE
  8
0
 62
     0
 10
47.564488
 20
-171.638615
 30
0.0
 11
65.236321
 21
-153.966781
 31
0.0
  0
LINE
  8
0
 62
     0
 10
46.021859
 20
-169.645709
 30
0.0
 11
63.243415
 21
-152.424153
 31
0.0
  0
LINE
  8
0
 62
     0
 10
44.866897
 20
-167.265137
 30
0.0
 11
60.862843
 21
-151.269191
 31
0.0
  0
LINE
  8
0
 62
     0
 10
44.202204
 20
-164.394297
 30
0.0
 11
57.992003
 21
-150.604497
 31
0.0
  0
LINE
  8
0
 62
     0
 10
44.343184
 20
-160.717783
 30
0.0
 11
54.315489
 21
-150.745477
 31
0.0
  0
LINE
  8
0
 62
     0
 10
78.267616
 20
-169.219757
 30
0.0
 11
95.813622
 21
-151.673752
 31
0.0
  0
LINE
  8
0
 62
     0
 10
81.906047
 20
-169.11686
 30
0.0
 11
92.627506
 21
-158.395401
 31
0.0
  0
LINE
  8
0
 62
     0
 10
85.544479
 20
-169.013963
 30
0.0
 11
92.627506
 21
-161.930935
 31
0.0
  0
LINE
  8
0
 62
     0
 10
88.315752
 20
-169.778224
 30
0.0
 11
92.627506
 21
-165.466469
 31
0.0
  0
LINE
  8
0
 62
     0
 10
89.996422
 20
-171.633087
 30
0.0
 11
92.627506
 21
-169.002003
 31
0.0
  0
LINE
  8
0
 62
     0
 10
92.385243
 20
-172.7798
 30
0.0
 11
92.627506
 21
-172.537537
 31
0.0
  0
ENDBLK
  8
0
  0
BLOCK
  8
0
  2
*X9
 70
    65
 10
0.0
 20
0.0
 30
0.0
  3
*X
  0
LINE
  8
0
 62
     0
 10
-95.41592
 20
-371.187564
 30
0.0
 11
-82.083778
 21
-357.855423
 31
0.0
  0
LINE
  8
0
 62
     0
 10
-99.028812
 20
-371.264923
 30
0.0
 11
-85.545197
 21
-357.781308
 31
0.0
  0
LINE
  8
0
 62
     0
 10
-102.641704
 20
-371.342281
 30
0.0
 11
-89.006616
 21
-357.707193
 31
0.0
  0
LINE
  8
0
 62
     0
 10
-112.695297
 20
-377.86034
 30
0.0
 11
-92.468035
 21
-357.633078
 31
0.0
  0
LINE
  8
0
 62
     0
 10
-116.746518
 20
-378.376027
 30
0.0
 11
-95.929454
 21
-357.558963
 31
0.0
  0
LINE
  8
0
 62
     0
 10
-119.866489
 20
-377.960464
 30
0.0
 11
-99.390873
 21
-357.484848
 31
0.0
  0
LINE
  8
0
 62
     0
 10
-122.469557
 20
-377.027998
 30
0.0
 11
-102.852292
 21
-357.410733
 31
0.0
  0
LINE
  8
0
 62
     0
 10
-124.689126
 20
-375.712033
 30
0.0
 11
-105.13655
 21
-356.159457
 31
0.0
  0
LINE
  8
0
 62
     0
 10
-126.577855
 20
-374.065229
 30
0.0
 11
-106.783354
 21
-354.270728
 31
0.0
  0
LINE
  8
0
 62
     0
 10
-128.148132
 20
-372.099971
 30
0.0
 11
-108.748612
 21
-352.700452
 31
0.0
  0
LINE
  8
0
 62
     0
 10
-129.379386
 20
-369.795692
 30
0.0
 11
-111.052891
 21
-351.469197
 31
0.0
  0
LINE
  8
0
 62
     0
 10
-130.205516
 20
-367.086288
 30
0.0
 11
-113.762295
 21
-350.643067
 31
0.0
  0
LINE
  8
0
 62
     0
 10
-130.457986
 20
-363.803224
 30
0.0
 11
-117.045359
 21
-350.390597
 31
0.0
  0
LINE
  8
0
 62
     0
 10
-129.53247
 20
-359.342174
 30
0.0
 11
-121.506409
 21
-351.316113
 31
0.0
  0
LINE
  8
0
 62
     0
 10
-91.803027
 20
-371.110206
 30
0.0
 11
-78.62236
 21
-357.929538
 31
0.0
  0
LINE
  8
0
 62
     0
 10
-88.190135
 20
-371.032848
 30
0.0
 11
-68.7349
 21
-351.577612
 31
0.0
  0
LINE
  8
0
 62
     0
 10
-84.577243
 20
-370.955489
 30
0.0
 11
-72.469822
 21
-358.848068
 31
0.0
  0
LINE
  8
0
 62
     0
 10
-80.964351
 20
-370.878131
 30
0.0
 11
-72.469822
 21
-362.383602
 31
0.0
  0
LINE
  8
0
 62
     0
 10
-77.617478
 20
-371.066792
 30
0.0
 11
-72.469822
 21
-365.919136
 31
0.0
  0
LINE
  8
0
 62
     0
 10
-76.112636
 20
-373.097484
 30
0.0
 11
-72.469822
 21
-369.45467
 31
0.0
  0
LINE
  8
0
 62
     0
 10
-74.263281
 20
-374.783663
 30
0.0
 11
-72.469822
 21
-372.990204
 31
0.0
  0
ENDBLK
  8
0
  0
ENDSEC
  0
SECTION
  2
ENTITIES
  0
LINE
  8
0
 10
-452.600202
 20
-72.134686
 30
0.0
 11
-452.600202
 21
-69.008161
 31
0.0
  0
LINE
  8
0
 10
-452.600202
 20
-69.008161
 30
0.0
 11
-445.600202
 21
-69.008161
 31
0.0
  0
ARC
  8
0
 10
-449.100202
 20
-43.508161
 30
0.0
 40
2.0
 50
39.987123
 51
140.012877
  0
ARC
  8
0
 10
-436.779754
 20
-52.457809
 30
0.0
 40
17.320521
 50
150.995881
 51
204.614257
  0
ARC
  8
0
 10
-460.698945
 20
-64.275735
 30
0.0
 40
9.380058
 50
329.700512
 51
29.393705
  0
ARC
  8
0
 10
-446.27915
 20
-46.668726
 30
0.0
 40
6.222335
 50
134.398581
 51
155.208205
  0
ARC
  8
0
 10
-451.921253
 20
-46.668726
 30
0.0
 40
6.222335
 50
24.791795
 51
45.601419
  0
ARC
  8
0
 10
-461.42065
 20
-52.457809
 30
0.0
 40
17.320521
 50
335.385743
 51
29.004119
  0
ARC
  8
0
 10
-437.501459
 20
-64.275735
 30
0.0
 40
9.380058
 50
150.606295
 51
210.299488
  0
LINE
  8
0
 10
-445.600202
 20
-72.134686
 30
0.0
 11
-445.600202
 21
-69.008161
 31
0.0
  0
LINE
  8
0
 10
-114.142396
 20
-67.258161
 30
0.0
 11
-106.142396
 21
-67.258161
 31
0.0
  0
LINE
  8
0
 10
-114.142396
 20
-70.913873
 30
0.0
 11
-114.142396
 21
-67.258161
 31
0.0
  0
LINE
  8
0
 10
-106.142396
 20
-70.913873
 30
0.0
 11
-106.142396
 21
-67.258161
 31
0.0
  0
ARC
  8
0
 10
-110.142396
 20
-34.758161
 30
0.0
 40
2.5
 50
33.251497
 51
146.748503
  0
ARC
  8
0
 10
-94.370111
 20
-46.992825
 30
0.0
 40
22.274338
 50
156.838583
 51
201.644118
  0
ARC
  8
0
 10
-128.754969
 20
-62.327009
 30
0.0
 40
15.422178
 50
341.352542
 51
27.488861
  0
ARC
  8
0
 10
-95.343123
 20
-45.636775
 30
0.0
 40
20.864283
 50
144.048582
 51
159.212029
  0
ARC
  8
0
 10
-124.941669
 20
-45.636775
 30
0.0
 40
20.864283
 50
20.787971
 51
35.951418
  0
ARC
  8
0
 10
-125.914681
 20
-46.992825
 30
0.0
 40
22.274338
 50
338.355882
 51
23.161417
  0
ARC
  8
0
 10
-91.529823
 20
-62.327009
 30
0.0
 40
15.422178
 50
152.511139
 51
198.647458
  0
LINE
  8
0
 10
-456.309929
 20
-194.33052
 30
0.0
 11
-456.309929
 21
-189.844898
 31
0.0
  0
LINE
  8
0
 10
-447.309929
 20
-194.33052
 30
0.0
 11
-447.309929
 21
-189.844898
 31
0.0
  0
LINE
  8
0
 10
-456.309929
 20
-189.844898
 30
0.0
 11
-447.309929
 21
-189.844898
 31
0.0
  0
ARC
  8
0
 10
-451.809929
 20
-153.344898
 30
0.0
 40
3.0
 50
32.474689
 51
147.525311
  0
ARC
  8
0
 10
-428.808932
 20
-167.339896
 30
0.0
 40
30.084224
 50
155.594737
 51
203.943354
  0
ARC
  8
0
 10
-473.604702
 20
-184.687566
 30
0.0
 40
18.047362
 50
343.395325
 51
16.542267
  0
ARC
  8
0
 10
-435.808742
 20
-164.748868
 30
0.0
 40
22.645561
 50
144.920304
 51
154.246747
  0
ARC
  8
0
 10
-467.811116
 20
-164.748868
 30
0.0
 40
22.645561
 50
25.753253
 51
35.079696
  0
ARC
  8
0
 10
-474.810926
 20
-167.339896
 30
0.0
 40
30.084224
 50
336.056646
 51
24.405263
  0
ARC
  8
0
 10
-430.015156
 20
-184.687566
 30
0.0
 40
18.047362
 50
163.457733
 51
196.604675
  0
CIRCLE
  8
0
 10
-451.809929
 20
-236.700038
 30
0.0
 40
7.0
  0
LINE
  8
0
 10
-105.998366
 20
-193.737687
 30
0.0
 11
-105.998366
 21
-189.221002
 31
0.0
  0
LINE
  8
0
 10
-95.998366
 20
-193.737687
 30
0.0
 11
-95.998366
 21
-189.221002
 31
0.0
  0
LINE
  8
0
 10
-105.998366
 20
-189.221002
 30
0.0
 11
-95.998366
 21
-189.221002
 31
0.0
  0
ARC
  8
0
 10
-100.998366
 20
-150.221002
 30
0.0
 40
3.5
 50
37.340026
 51
142.659974
  0
ARC
  8
0
 10
-82.764546
 20
-163.67014
 30
0.0
 40
26.289505
 50
154.312803
 51
205.210117
  0
ARC
  8
0
 10
-92.194651
 20
-158.463453
 30
0.0
 40
15.546221
 50
138.183718
 51
156.541547
  0
ARC
  8
0
 10
-125.88378
 20
-182.798122
 30
0.0
 40
20.896963
 50
342.099827
 51
22.302295
  0
ARC
  8
0
 10
-109.802081
 20
-158.463453
 30
0.0
 40
15.546221
 50
23.458453
 51
41.816282
  0
ARC
  8
0
 10
-119.232186
 20
-163.67014
 30
0.0
 40
26.289505
 50
334.789883
 51
25.687197
  0
ARC
  8
0
 10
-76.112952
 20
-182.798122
 30
0.0
 40
20.896963
 50
157.697705
 51
197.900173
  0
CIRCLE
  8
0
 10
-100.998366
 20
-238.540419
 30
0.0
 40
8.0
  0
LINE
  8
0
 10
-276.636488
 20
-343.156135
 30
0.0
 11
-265.636488
 21
-343.156135
 31
0.0
  0
LINE
  8
0
 10
-276.636488
 20
-348.804489
 30
0.0
 11
-276.636488
 21
-343.156135
 31
0.0
  0
LINE
  8
0
 10
-265.636488
 20
-348.804489
 30
0.0
 11
-265.636488
 21
-343.156135
 31
0.0
  0
ARC
  8
0
 10
-271.136488
 20
-297.656135
 30
0.0
 40
3.5
 50
34.2045
 51
145.7955
  0
ARC
  8
0
 10
-246.701293
 20
-314.870265
 30
0.0
 40
33.435285
 50
160.983708
 51
207.465335
  0
ARC
  8
0
 10
-294.46764
 20
-336.348771
 30
0.0
 40
19.086387
 50
339.104741
 51
18.504927
  0
ARC
  8
0
 10
-254.592041
 20
-310.979115
 30
0.0
 40
24.732105
 50
141.811914
 51
163.550718
  0
ARC
  8
0
 10
-287.680936
 20
-310.979115
 30
0.0
 40
24.732105
 50
16.449282
 51
38.188086
  0
ARC
  8
0
 10
-295.571683
 20
-314.870265
 30
0.0
 40
33.435285
 50
332.534665
 51
19.016292
  0
ARC
  8
0
 10
-247.805337
 20
-336.348771
 30
0.0
 40
19.086387
 50
161.495073
 51
200.895259
  0
CIRCLE
  8
0
 10
-271.136488
 20
-406.821653
 30
0.0
 40
9.0
  0
ARC
  8
0
 10
-449.100202
 20
-77.258161
 30
0.0
 40
6.5
 50
127.979872
 51
151.515365
  0
ARC
  8
0
 10
-474.100202
 20
-77.258161
 30
0.0
 40
8.0
 50
305.659088
 51
335.117875
  0
ARC
  8
0
 10
-499.100202
 20
-77.258161
 30
0.0
 40
9.0
 50
25.679289
 51
334.320711
  0
LINE
  8
0
 10
-454.813344
 20
-74.158161
 30
0.0
 11
-466.842799
 21
-73.892139
 31
0.0
  0
LINE
  8
0
 10
-454.813344
 20
-80.358161
 30
0.0
 11
-466.842799
 21
-80.624184
 31
0.0
  0
LINE
  8
0
 10
-481.201708
 20
-73.574602
 30
0.0
 11
-490.989098
 21
-73.358161
 31
0.0
  0
LINE
  8
0
 10
-481.201708
 20
-80.941721
 30
0.0
 11
-490.989098
 21
-81.158161
 31
0.0
  0
LINE
  8
0
 10
-445.100202
 20
-72.134686
 30
0.0
 11
-453.100202
 21
-72.134686
 31
0.0
  0
LINE
  8
0
 10
-469.436512
 20
-70.758161
 30
0.0
 11
-478.763891
 21
-70.758161
 31
0.0
  0
LINE
  8
0
 10
-469.436512
 20
-83.758161
 30
0.0
 11
-478.763891
 21
-83.758161
 31
0.0
  0
ARC
  8
0
 10
-474.100202
 20
-77.258161
 30
0.0
 40
8.0
 50
207.415819
 51
234.340912
  0
LINE
  8
0
 10
-477.600202
 20
-70.758161
 30
0.0
 11
-477.600202
 21
-83.758161
 31
0.0
  0
ARC
  8
0
 10
-474.100202
 20
-77.258161
 30
0.0
 40
8.0
 50
125.659088
 51
152.584181
  0
INSERT
  8
0
  2
*X0
 10
-149.6
 20
-33.711958
 30
0.0
  0
LINE
  8
0
  6
CENTER
 10
-474.100202
 20
-67.841413
 30
0.0
 11
-474.100202
 21
-87.428249
 31
0.0
  0
ARC
  8
0
 10
-529.18671
 20
-77.258161
 30
0.0
 40
9.0
 50
112.665457
 51
67.334543
  0
LINE
  8
0
 10
-481.201708
 20
-105.353276
 30
0.0
 11
-490.989098
 21
-105.569717
 31
0.0
  0
LINE
  8
0
 10
-481.201708
 20
-97.986158
 30
0.0
 11
-490.989098
 21
-97.769717
 31
0.0
  0
LINE
  8
0
 10
-454.813344
 20
-104.769717
 30
0.0
 11
-466.842799
 21
-105.035739
 31
0.0
  0
LINE
  8
0
 10
-454.813344
 20
-98.569717
 30
0.0
 11
-466.842799
 21
-98.303695
 31
0.0
  0
ARC
  8
0
 10
-499.100202
 20
-101.669717
 30
0.0
 40
9.0
 50
25.679289
 51
334.320711
  0
ARC
  8
0
 10
-449.100202
 20
-101.669717
 30
0.0
 40
6.5
 50
208.484635
 51
151.515365
  0
ARC
  8
0
 10
-474.100202
 20
-101.669717
 30
0.0
 40
8.0
 50
24.882125
 51
152.584181
  0
CIRCLE
  8
0
 10
-474.100202
 20
-101.669717
 30
0.0
 40
3.5
  0
CIRCLE
  8
0
 10
-449.100202
 20
-101.669717
 30
0.0
 40
5.0
  0
ARC
  8
0
 10
-166.142396
 20
-77.258161
 30
0.0
 40
10.0
 50
30.0
 51
330.0
  0
ARC
  8
0
 10
-138.142396
 20
-77.258161
 30
0.0
 40
9.5
 50
116.525352
 51
150.708433
  0
ARC
  8
0
 10
-110.142396
 20
-77.258161
 30
0.0
 40
7.5
 50
122.230953
 51
150.440092
  0
ARC
  8
0
 10
-474.100202
 20
-77.258161
 30
0.0
 40
8.0
 50
24.882125
 51
54.340912
  0
ARC
  8
0
 10
-449.100202
 20
-77.258161
 30
0.0
 40
6.5
 50
208.484635
 51
52.020128
  0
LINE
  8
0
 10
-466.842799
 20
-73.892139
 30
0.0
 11
-466.842799
 21
-80.624184
 31
0.0
  0
LINE
  8
0
 10
-454.813344
 20
-74.158161
 30
0.0
 11
-454.813344
 21
-80.358161
 31
0.0
  0
LINE
  8
0
 10
-466.842799
 20
-98.303695
 30
0.0
 11
-466.842799
 21
-105.035739
 31
0.0
  0
LINE
  8
0
 10
-454.813344
 20
-98.569717
 30
0.0
 11
-454.813344
 21
-104.769717
 31
0.0
  0
LINE
  8
0
 10
-490.989098
 20
-97.769717
 30
0.0
 11
-490.989098
 21
-105.569717
 31
0.0
  0
ARC
  8
0
 10
-474.100202
 20
-101.669717
 30
0.0
 40
8.0
 50
207.415819
 51
335.117875
  0
LINE
  8
0
 10
-481.201708
 20
-97.986158
 30
0.0
 11
-481.201708
 21
-105.353276
 31
0.0
  0
CIRCLE
  8
0
 10
-474.100202
 20
-101.669717
 30
0.0
 40
4.66369
  0
ARC
  8
0
 10
-529.18671
 20
-77.258161
 30
0.0
 40
6.5
 50
122.57897
 51
57.42103
  0
LINE
  8
0
 10
-525.68671
 20
-71.780936
 30
0.0
 11
-525.68671
 21
-69.008161
 31
0.0
  0
ARC
  8
0
 10
-517.587967
 20
-64.275735
 30
0.0
 40
9.380058
 50
150.606295
 51
210.299488
  0
ARC
  8
0
 10
-541.507158
 20
-52.457809
 30
0.0
 40
17.320521
 50
335.385743
 51
29.004119
  0
ARC
  8
0
 10
-532.007761
 20
-46.668726
 30
0.0
 40
6.222335
 50
24.791795
 51
45.601419
  0
ARC
  8
0
 10
-526.365658
 20
-46.668726
 30
0.0
 40
6.222335
 50
134.398581
 51
155.208205
  0
ARC
  8
0
 10
-540.785453
 20
-64.275735
 30
0.0
 40
9.380058
 50
329.700512
 51
29.393705
  0
ARC
  8
0
 10
-516.866262
 20
-52.457809
 30
0.0
 40
17.320521
 50
150.995881
 51
204.614257
  0
ARC
  8
0
 10
-529.18671
 20
-43.508161
 30
0.0
 40
2.0
 50
39.987123
 51
140.012877
  0
LINE
  8
0
 10
-532.68671
 20
-69.008161
 30
0.0
 11
-525.68671
 21
-69.008161
 31
0.0
  0
LINE
  8
0
 10
-532.68671
 20
-71.780936
 30
0.0
 11
-532.68671
 21
-69.008161
 31
0.0
  0
ARC
  8
0
 10
-529.18671
 20
-77.258161
 30
0.0
 40
8.0
 50
125.659088
 51
234.340912
  0
ARC
  8
0
 10
-529.18671
 20
-77.258161
 30
0.0
 40
8.0
 50
305.659088
 51
54.340912
  0
LINE
  8
0
 10
-533.850399
 20
-83.758161
 30
0.0
 11
-524.52302
 21
-83.758161
 31
0.0
  0
LINE
  8
0
 10
-157.482142
 20
-72.258161
 30
0.0
 11
-146.427738
 21
-72.610248
 31
0.0
  0
LINE
  8
0
 10
-157.482142
 20
-82.258161
 30
0.0
 11
-146.427738
 21
-81.906075
 31
0.0
  0
LINE
  8
0
 10
-129.578072
 20
-73.146914
 30
0.0
 11
-116.666199
 21
-73.558161
 31
0.0
  0
LINE
  8
0
 10
-129.578072
 20
-81.369408
 30
0.0
 11
-116.666199
 21
-80.958161
 31
0.0
  0
LINE
  8
0
 10
-142.385037
 20
-68.758161
 30
0.0
 11
-133.899755
 21
-68.758161
 31
0.0
  0
LINE
  8
0
 10
-142.385037
 20
-85.758161
 30
0.0
 11
-133.899755
 21
-85.758161
 31
0.0
  0
ARC
  8
0
 10
-138.142396
 20
-77.258161
 30
0.0
 40
9.5
 50
296.525352
 51
334.356975
  0
LINE
  8
0
 10
-114.142396
 20
-70.913873
 30
0.0
 11
-106.142396
 21
-70.913873
 31
0.0
  0
LINE
  8
0
 10
-142.142396
 20
-68.758161
 30
0.0
 11
-142.142396
 21
-85.758161
 31
0.0
  0
ARC
  8
0
 10
-138.142396
 20
-77.258161
 30
0.0
 40
9.5
 50
209.291567
 51
243.474648
  0
LINE
  8
0
  6
CENTER
 10
-138.142396
 20
-62.593489
 30
0.0
 11
-138.142396
 21
-91.385489
 31
0.0
  0
INSERT
  8
0
  2
*X1
 10
83.993536
 20
-1.191429
 30
0.0
  0
ARC
  8
0
 10
-197.962533
 20
-77.258161
 30
0.0
 40
10.0
 50
113.578178
 51
66.421822
  0
ARC
  8
0
 10
-197.962533
 20
-77.258161
 30
0.0
 40
9.5
 50
116.525352
 51
243.474648
  0
ARC
  8
0
 10
-197.962533
 20
-77.258161
 30
0.0
 40
7.5
 50
122.230953
 51
57.769047
  0
LINE
  8
0
 10
-201.962533
 20
-70.913873
 30
0.0
 11
-193.962533
 21
-70.913873
 31
0.0
  0
ARC
  8
0
 10
-179.34996
 20
-62.327009
 30
0.0
 40
15.422178
 50
152.511139
 51
198.647458
  0
ARC
  8
0
 10
-213.734818
 20
-46.992825
 30
0.0
 40
22.274338
 50
338.355882
 51
23.161417
  0
ARC
  8
0
 10
-212.761805
 20
-45.636775
 30
0.0
 40
20.864283
 50
20.787971
 51
35.951418
  0
ARC
  8
0
 10
-183.16326
 20
-45.636775
 30
0.0
 40
20.864283
 50
144.048582
 51
159.212029
  0
ARC
  8
0
 10
-216.575106
 20
-62.327009
 30
0.0
 40
15.422178
 50
341.352542
 51
27.488861
  0
ARC
  8
0
 10
-182.190248
 20
-46.992825
 30
0.0
 40
22.274338
 50
156.838583
 51
201.644118
  0
ARC
  8
0
 10
-197.962533
 20
-34.758161
 30
0.0
 40
2.5
 50
33.251497
 51
146.748503
  0
LINE
  8
0
 10
-193.962533
 20
-70.913873
 30
0.0
 11
-193.962533
 21
-67.258161
 31
0.0
  0
LINE
  8
0
 10
-201.962533
 20
-70.913873
 30
0.0
 11
-201.962533
 21
-67.258161
 31
0.0
  0
LINE
  8
0
 10
-201.962533
 20
-67.258161
 30
0.0
 11
-193.962533
 21
-67.258161
 31
0.0
  0
LINE
  8
0
 10
-193.719892
 20
-85.758161
 30
0.0
 11
-202.205174
 21
-85.758161
 31
0.0
  0
ARC
  8
0
 10
-197.962533
 20
-77.258161
 30
0.0
 40
9.5
 50
296.525352
 51
63.474648
  0
ARC
  8
0
 10
-138.142396
 20
-113.602448
 30
0.0
 40
9.5
 50
209.291567
 51
334.356975
  0
LINE
  8
0
 10
-129.578072
 20
-117.713695
 30
0.0
 11
-116.666199
 21
-117.302448
 31
0.0
  0
LINE
  8
0
 10
-129.578072
 20
-109.491201
 30
0.0
 11
-116.666199
 21
-109.902448
 31
0.0
  0
LINE
  8
0
 10
-157.482142
 20
-118.602448
 30
0.0
 11
-146.427738
 21
-118.250362
 31
0.0
  0
LINE
  8
0
 10
-157.482142
 20
-108.602448
 30
0.0
 11
-146.427738
 21
-108.954534
 31
0.0
  0
ARC
  8
0
 10
-166.142396
 20
-113.602448
 30
0.0
 40
10.0
 50
30.0
 51
330.0
  0
ARC
  8
0
 10
-138.142396
 20
-77.258161
 30
0.0
 40
9.5
 50
25.643025
 51
63.474648
  0
ARC
  8
0
 10
-110.142396
 20
-77.258161
 30
0.0
 40
7.5
 50
209.559908
 51
57.769047
  0
LINE
  8
0
 10
-129.578072
 20
-73.146914
 30
0.0
 11
-129.578072
 21
-81.369408
 31
0.0
  0
LINE
  8
0
 10
-116.666199
 20
-73.558161
 30
0.0
 11
-116.666199
 21
-80.958161
 31
0.0
  0
ARC
  8
0
 10
-110.142396
 20
-113.602448
 30
0.0
 40
7.5
 50
209.559908
 51
150.440092
  0
ARC
  8
0
 10
-138.142396
 20
-113.602448
 30
0.0
 40
9.5
 50
25.643025
 51
150.708433
  0
LINE
  8
0
 10
-157.482142
 20
-108.602448
 30
0.0
 11
-157.482142
 21
-118.602448
 31
0.0
  0
LINE
  8
0
 10
-146.427738
 20
-108.954534
 30
0.0
 11
-146.427738
 21
-118.250362
 31
0.0
  0
LINE
  8
0
 10
-129.578072
 20
-109.491201
 30
0.0
 11
-129.578072
 21
-117.713695
 31
0.0
  0
LINE
  8
0
 10
-116.666199
 20
-109.902448
 30
0.0
 11
-116.666199
 21
-117.302448
 31
0.0
  0
CIRCLE
  8
0
 10
-110.142396
 20
-113.602448
 30
0.0
 40
6.5
  0
CIRCLE
  8
0
 10
-138.142396
 20
-113.602448
 30
0.0
 40
4.0
  0
CIRCLE
  8
0
 10
-138.142396
 20
-113.602448
 30
0.0
 40
4.242641
  0
ARC
  8
0
 10
-451.809929
 20
-200.944898
 30
0.0
 40
8.0
 50
213.796855
 51
55.771134
  0
ARC
  8
0
 10
-485.809929
 20
-200.944898
 30
0.0
 40
10.0
 50
212.313548
 51
238.211669
  0
ARC
  8
0
 10
-519.809929
 20
-200.944898
 30
0.0
 40
11.0
 50
31.51537
 51
328.48463
  0
LINE
  8
0
 10
-510.432429
 20
-195.194898
 30
0.0
 11
-494.261284
 21
-195.599376
 31
0.0
  0
LINE
  8
0
 10
-510.432429
 20
-206.694898
 30
0.0
 11
-494.261284
 21
-206.290421
 31
0.0
  0
ARC
  8
0
 10
-485.809929
 20
-200.944898
 30
0.0
 40
10.0
 50
29.447945
 51
58.211669
  0
LINE
  8
0
 10
-477.101902
 20
-205.861225
 30
0.0
 11
-458.458049
 21
-205.394898
 31
0.0
  0
LINE
  8
0
 10
-477.101902
 20
-196.028572
 30
0.0
 11
-458.458049
 21
-196.494898
 31
0.0
  0
LINE
  8
0
 10
-477.101902
 20
-196.028572
 30
0.0
 11
-477.101902
 21
-205.861225
 31
0.0
  0
LINE
  8
0
 10
-458.458049
 20
-196.494898
 30
0.0
 11
-458.458049
 21
-205.394898
 31
0.0
  0
LINE
  8
0
 10
-491.077756
 20
-192.444898
 30
0.0
 11
-480.542102
 21
-192.444898
 31
0.0
  0
LINE
  8
0
 10
-491.077756
 20
-209.444898
 30
0.0
 11
-480.542102
 21
-209.444898
 31
0.0
  0
ARC
  8
0
 10
-485.809929
 20
-200.944898
 30
0.0
 40
10.0
 50
121.788331
 51
147.686452
  0
ARC
  8
0
 10
-485.809929
 20
-200.944898
 30
0.0
 40
10.0
 50
301.788331
 51
330.552055
  0
LINE
  8
0
 10
-489.809929
 20
-192.444898
 30
0.0
 11
-489.809929
 21
-209.444898
 31
0.0
  0
LINE
  8
0
  6
CENTER
 10
-485.809929
 20
-186.993774
 30
0.0
 11
-485.809929
 21
-214.77389
 31
0.0
  0
LINE
  8
0
 10
-456.309929
 20
-194.33052
 30
0.0
 11
-447.309929
 21
-194.33052
 31
0.0
  0
ARC
  8
0
 10
-451.809929
 20
-200.944898
 30
0.0
 40
8.0
 50
124.228866
 51
146.203145
  0
INSERT
  8
0
  2
*X2
 10
-166.4
 20
-52.681655
 30
0.0
  0
ARC
  8
0
 10
-485.809929
 20
-236.700038
 30
0.0
 40
10.0
 50
212.313548
 51
330.552055
  0
LINE
  8
0
 10
-458.458049
 20
-232.250038
 30
0.0
 11
-458.458049
 21
-234.508577
 31
0.0
  0
LINE
  8
0
 10
-477.101902
 20
-231.783712
 30
0.0
 11
-477.101902
 21
-241.616364
 31
0.0
  0
LINE
  8
0
 10
-477.101902
 20
-231.783712
 30
0.0
 11
-458.458049
 21
-232.250038
 31
0.0
  0
LINE
  8
0
 10
-477.101902
 20
-241.616364
 30
0.0
 11
-458.458049
 21
-241.150038
 31
0.0
  0
ARC
  8
0
 10
-485.809929
 20
-236.700038
 30
0.0
 40
10.0
 50
29.447945
 51
147.686452
  0
LINE
  8
0
 10
-510.432429
 20
-242.450038
 30
0.0
 11
-494.261284
 21
-242.04556
 31
0.0
  0
LINE
  8
0
 10
-510.432429
 20
-230.950038
 30
0.0
 11
-494.261284
 21
-231.354516
 31
0.0
  0
ARC
  8
0
 10
-519.809929
 20
-236.700038
 30
0.0
 40
11.0
 50
31.51537
 51
328.48463
  0
ARC
  8
0
 10
-451.809929
 20
-236.700038
 30
0.0
 40
8.0
 50
213.796855
 51
146.203145
  0
LINE
  8
0
 10
-510.432429
 20
-230.950038
 30
0.0
 11
-510.432429
 21
-242.450038
 31
0.0
  0
LINE
  8
0
 10
-494.261284
 20
-231.354516
 30
0.0
 11
-494.261284
 21
-242.04556
 31
0.0
  0
LINE
  8
0
 10
-458.458049
 20
-238.891499
 30
0.0
 11
-458.458049
 21
-241.150038
 31
0.0
  0
CIRCLE
  8
0
 10
-485.809929
 20
-236.700038
 30
0.0
 40
4.0
  0
CIRCLE
  8
0
 10
-485.809929
 20
-236.700038
 30
0.0
 40
5.267827
  0
LINE
  8
0
 10
-555.151331
 20
-194.33052
 30
0.0
 11
-546.151331
 21
-194.33052
 31
0.0
  0
ARC
  8
0
 10
-550.651331
 20
-200.944898
 30
0.0
 40
8.0
 50
124.228866
 51
55.771134
  0
ARC
  8
0
 10
-528.856558
 20
-184.687566
 30
0.0
 40
18.047362
 50
163.457733
 51
196.604675
  0
ARC
  8
0
 10
-573.652328
 20
-167.339896
 30
0.0
 40
30.084224
 50
336.056646
 51
24.405263
  0
ARC
  8
0
 10
-566.652518
 20
-164.748868
 30
0.0
 40
22.645561
 50
25.753253
 51
35.079696
  0
ARC
  8
0
 10
-534.650144
 20
-164.748868
 30
0.0
 40
22.645561
 50
144.920304
 51
154.246747
  0
ARC
  8
0
 10
-572.446104
 20
-184.687566
 30
0.0
 40
18.047362
 50
343.395325
 51
16.542267
  0
ARC
  8
0
 10
-527.650334
 20
-167.339896
 30
0.0
 40
30.084224
 50
155.594737
 51
203.943354
  0
ARC
  8
0
 10
-550.651331
 20
-153.344898
 30
0.0
 40
3.0
 50
32.474689
 51
147.525311
  0
LINE
  8
0
 10
-555.151331
 20
-189.844898
 30
0.0
 11
-546.151331
 21
-189.844898
 31
0.0
  0
LINE
  8
0
 10
-546.151331
 20
-194.33052
 30
0.0
 11
-546.151331
 21
-189.844898
 31
0.0
  0
LINE
  8
0
 10
-555.151331
 20
-194.33052
 30
0.0
 11
-555.151331
 21
-189.844898
 31
0.0
  0
ARC
  8
0
 10
-550.651331
 20
-200.944898
 30
0.0
 40
10.0
 50
121.788331
 51
238.211669
  0
ARC
  8
0
 10
-550.651331
 20
-200.944898
 30
0.0
 40
11.0
 50
114.14774
 51
65.85226
  0
LINE
  8
0
 10
-524.52302
 20
-70.758161
 30
0.0
 11
-525.68671
 21
-70.758161
 31
0.0
  0
LINE
  8
0
 10
-532.68671
 20
-70.758161
 30
0.0
 11
-533.850399
 21
-70.758161
 31
0.0
  0
LINE
  8
0
 10
-193.719892
 20
-68.758161
 30
0.0
 11
-193.962533
 21
-68.758161
 31
0.0
  0
LINE
  8
0
 10
-201.962533
 20
-68.758161
 30
0.0
 11
-202.205174
 21
-68.758161
 31
0.0
  0
LINE
  8
0
 10
-545.383504
 20
-192.444898
 30
0.0
 11
-546.151331
 21
-192.444898
 31
0.0
  0
LINE
  8
0
 10
-555.151331
 20
-192.444898
 30
0.0
 11
-555.919158
 21
-192.444898
 31
0.0
  0
LINE
  8
0
 10
-545.383504
 20
-209.444898
 30
0.0
 11
-555.919158
 21
-209.444898
 31
0.0
  0
ARC
  8
0
 10
-550.651331
 20
-200.944898
 30
0.0
 40
10.0
 50
301.788331
 51
58.211669
  0
ARC
  8
0
 10
-100.998366
 20
-201.221002
 30
0.0
 40
9.0
 50
211.481432
 51
56.251011
  0
ARC
  8
0
 10
-141.998366
 20
-201.221002
 30
0.0
 40
11.5
 50
210.99019
 51
237.976004
  0
ARC
  8
0
 10
-182.998366
 20
-201.221002
 30
0.0
 40
12.5
 50
31.332251
 51
328.667749
  0
LINE
  8
0
 10
-172.321288
 20
-194.721002
 30
0.0
 11
-151.856804
 21
-195.299752
 31
0.0
  0
LINE
  8
0
 10
-172.321288
 20
-207.721002
 30
0.0
 11
-151.856804
 21
-207.142252
 31
0.0
  0
LINE
  8
0
 10
-131.821039
 20
-195.866378
 30
0.0
 11
-108.673651
 21
-196.521002
 31
0.0
  0
LINE
  8
0
 10
-131.821039
 20
-206.575626
 30
0.0
 11
-108.673651
 21
-205.921002
 31
0.0
  0
ARC
  8
0
 10
-141.998366
 20
-201.221002
 30
0.0
 40
11.5
 50
27.750323
 51
57.976004
  0
LINE
  8
0
 10
-131.821039
 20
-195.866378
 30
0.0
 11
-131.821039
 21
-206.575626
 31
0.0
  0
LINE
  8
0
 10
-108.673651
 20
-196.521002
 30
0.0
 11
-108.673651
 21
-205.921002
 31
0.0
  0
LINE
  8
0
 10
-135.900211
 20
-191.471002
 30
0.0
 11
-148.096522
 21
-191.471002
 31
0.0
  0
LINE
  8
0
 10
-135.900211
 20
-210.971002
 30
0.0
 11
-148.096522
 21
-210.971002
 31
0.0
  0
ARC
  8
0
 10
-141.998366
 20
-201.221002
 30
0.0
 40
11.5
 50
302.023996
 51
332.249677
  0
ARC
  8
0
 10
-141.998366
 20
-201.221002
 30
0.0
 40
11.5
 50
122.023996
 51
149.00981
  0
LINE
  8
0
  6
CENTER
 10
-141.998366
 20
-218.259995
 30
0.0
 11
-141.998366
 21
-187.01001
 31
0.0
  0
LINE
  8
0
 10
-146.998366
 20
-210.971002
 30
0.0
 11
-146.998366
 21
-191.471002
 31
0.0
  0
INSERT
  8
0
  2
*X3
 10
-41.225872
 20
-37.090302
 30
0.0
  0
LINE
  8
0
 10
-105.998366
 20
-193.737687
 30
0.0
 11
-95.998366
 21
-193.737687
 31
0.0
  0
ARC
  8
0
 10
-100.998366
 20
-201.221002
 30
0.0
 40
9.0
 50
123.748989
 51
148.518568
  0
LINE
  8
0
 10
-237.429217
 20
-193.737687
 30
0.0
 11
-227.429217
 21
-193.737687
 31
0.0
  0
ARC
  8
0
 10
-232.429217
 20
-201.221002
 30
0.0
 40
9.0
 50
123.748989
 51
56.251011
  0
ARC
  8
0
 10
-207.543803
 20
-182.798122
 30
0.0
 40
20.896963
 50
157.697705
 51
197.900173
  0
ARC
  8
0
 10
-250.663037
 20
-163.67014
 30
0.0
 40
26.289505
 50
334.789883
 51
25.687197
  0
ARC
  8
0
 10
-241.232932
 20
-158.463453
 30
0.0
 40
15.546221
 50
23.458453
 51
41.816282
  0
ARC
  8
0
 10
-257.31463
 20
-182.798122
 30
0.0
 40
20.896963
 50
342.099827
 51
22.302295
  0
ARC
  8
0
 10
-223.625502
 20
-158.463453
 30
0.0
 40
15.546221
 50
138.183718
 51
156.541547
  0
ARC
  8
0
 10
-214.195396
 20
-163.67014
 30
0.0
 40
26.289505
 50
154.312803
 51
205.210117
  0
ARC
  8
0
 10
-232.429217
 20
-150.221002
 30
0.0
 40
3.5
 50
37.340026
 51
142.659974
  0
LINE
  8
0
 10
-237.429217
 20
-189.221002
 30
0.0
 11
-227.429217
 21
-189.221002
 31
0.0
  0
LINE
  8
0
 10
-227.429217
 20
-193.737687
 30
0.0
 11
-227.429217
 21
-189.221002
 31
0.0
  0
LINE
  8
0
 10
-237.429217
 20
-193.737687
 30
0.0
 11
-237.429217
 21
-189.221002
 31
0.0
  0
ARC
  8
0
 10
-232.429217
 20
-201.221002
 30
0.0
 40
11.5
 50
122.023996
 51
237.976004
  0
ARC
  8
0
 10
-232.429217
 20
-201.221002
 30
0.0
 40
12.5
 50
113.578178
 51
66.421822
  0
LINE
  8
0
 10
-226.331061
 20
-191.471002
 30
0.0
 11
-227.429217
 21
-191.471002
 31
0.0
  0
LINE
  8
0
 10
-237.429217
 20
-191.471002
 30
0.0
 11
-238.527372
 21
-191.471002
 31
0.0
  0
LINE
  8
0
 10
-226.331061
 20
-210.971002
 30
0.0
 11
-238.527372
 21
-210.971002
 31
0.0
  0
ARC
  8
0
 10
-232.429217
 20
-201.221002
 30
0.0
 40
11.5
 50
302.023996
 51
57.976004
  0
ARC
  8
0
 10
-141.998366
 20
-238.540419
 30
0.0
 40
11.5
 50
210.99019
 51
332.249677
  0
LINE
  8
0
 10
-108.673651
 20
-233.840419
 30
0.0
 11
-108.673651
 21
-236.284317
 31
0.0
  0
LINE
  8
0
 10
-131.821039
 20
-233.185795
 30
0.0
 11
-131.821039
 21
-243.895044
 31
0.0
  0
ARC
  8
0
 10
-141.998366
 20
-238.540419
 30
0.0
 40
11.5
 50
27.750323
 51
149.00981
  0
LINE
  8
0
 10
-131.821039
 20
-243.895044
 30
0.0
 11
-108.673651
 21
-243.240419
 31
0.0
  0
LINE
  8
0
 10
-131.821039
 20
-233.185795
 30
0.0
 11
-108.673651
 21
-233.840419
 31
0.0
  0
LINE
  8
0
 10
-172.321288
 20
-245.040419
 30
0.0
 11
-151.856804
 21
-244.461669
 31
0.0
  0
LINE
  8
0
 10
-172.321288
 20
-232.040419
 30
0.0
 11
-151.856804
 21
-232.619169
 31
0.0
  0
ARC
  8
0
 10
-182.998366
 20
-238.540419
 30
0.0
 40
12.5
 50
31.332251
 51
328.667749
  0
ARC
  8
0
 10
-100.998366
 20
-238.540419
 30
0.0
 40
9.0
 50
211.481432
 51
148.518568
  0
LINE
  8
0
 10
-151.856804
 20
-232.619169
 30
0.0
 11
-151.856804
 21
-244.461669
 31
0.0
  0
LINE
  8
0
 10
-172.321288
 20
-232.040419
 30
0.0
 11
-172.321288
 21
-245.040419
 31
0.0
  0
LINE
  8
0
 10
-108.673651
 20
-240.796522
 30
0.0
 11
-108.673651
 21
-243.240419
 31
0.0
  0
CIRCLE
  8
0
 10
-141.998366
 20
-238.540419
 30
0.0
 40
5.0
  0
CIRCLE
  8
0
 10
-141.998366
 20
-238.540419
 30
0.0
 40
6.098155
  0
ARC
  8
0
 10
-271.136488
 20
-357.156135
 30
0.0
 40
10.0
 50
212.005455
 51
56.632987
  0
ARC
  8
0
 10
-321.136488
 20
-357.156135
 30
0.0
 40
13.0
 50
209.649081
 51
235.783949
  0
ARC
  8
0
 10
-371.136488
 20
-357.156135
 30
0.0
 40
14.0
 50
30.0
 51
330.0
  0
LINE
  8
0
 10
-359.012133
 20
-350.156135
 30
0.0
 11
-332.434418
 21
-350.725211
 31
0.0
  0
LINE
  8
0
 10
-359.012133
 20
-364.156135
 30
0.0
 11
-332.434418
 21
-363.58706
 31
0.0
  0
LINE
  8
0
 10
-309.573645
 20
-351.2147
 30
0.0
 11
-279.616465
 21
-351.856135
 31
0.0
  0
LINE
  8
0
 10
-309.573645
 20
-363.097571
 30
0.0
 11
-279.616465
 21
-362.456135
 31
0.0
  0
ARC
  8
0
 10
-321.136488
 20
-357.156135
 30
0.0
 40
13.0
 50
27.19585
 51
55.783949
  0
LINE
  8
0
 10
-279.616465
 20
-351.856135
 30
0.0
 11
-279.616465
 21
-362.456135
 31
0.0
  0
LINE
  8
0
 10
-309.573645
 20
-351.2147
 30
0.0
 11
-309.573645
 21
-363.097571
 31
0.0
  0
LINE
  8
0
 10
-328.446584
 20
-346.406135
 30
0.0
 11
-313.826392
 21
-346.406135
 31
0.0
  0
LINE
  8
0
 10
-328.446584
 20
-367.906135
 30
0.0
 11
-313.826392
 21
-367.906135
 31
0.0
  0
ARC
  8
0
 10
-321.136488
 20
-357.156135
 30
0.0
 40
13.0
 50
124.216051
 51
150.350919
  0
ARC
  8
0
 10
-321.136488
 20
-357.156135
 30
0.0
 40
13.0
 50
304.216051
 51
332.80415
  0
LINE
  8
0
  6
CENTER
 10
-321.136488
 20
-378.240884
 30
0.0
 11
-321.136488
 21
-335.811168
 31
0.0
  0
LINE
  8
0
 10
-327.136488
 20
-367.906135
 30
0.0
 11
-327.136488
 21
-346.406135
 31
0.0
  0
INSERT
  8
0
  2
*X4
 10
-92.8
 20
-82.261313
 30
0.0
  0
LINE
  8
0
 10
-276.636488
 20
-348.804489
 30
0.0
 11
-265.636488
 21
-348.804489
 31
0.0
  0
ARC
  8
0
 10
-271.136488
 20
-357.156135
 30
0.0
 40
10.0
 50
123.367013
 51
147.994545
  0
ARC
  8
0
 10
-321.136488
 20
-406.821653
 30
0.0
 40
13.0
 50
209.649081
 51
332.80415
  0
LINE
  8
0
 10
-309.573645
 20
-400.880218
 30
0.0
 11
-309.573645
 21
-412.763089
 31
0.0
  0
LINE
  8
0
 10
-279.616465
 20
-401.521653
 30
0.0
 11
-279.616465
 21
-403.806691
 31
0.0
  0
ARC
  8
0
 10
-321.136488
 20
-406.821653
 30
0.0
 40
13.0
 50
27.19585
 51
150.350919
  0
LINE
  8
0
 10
-309.573645
 20
-412.763089
 30
0.0
 11
-279.616465
 21
-412.121653
 31
0.0
  0
LINE
  8
0
 10
-309.573645
 20
-400.880218
 30
0.0
 11
-279.616465
 21
-401.521653
 31
0.0
  0
LINE
  8
0
 10
-359.012133
 20
-413.821653
 30
0.0
 11
-332.434418
 21
-413.252578
 31
0.0
  0
LINE
  8
0
 10
-359.012133
 20
-399.821653
 30
0.0
 11
-332.434418
 21
-400.390729
 31
0.0
  0
ARC
  8
0
 10
-371.136488
 20
-406.821653
 30
0.0
 40
14.0
 50
30.0
 51
330.0
  0
ARC
  8
0
 10
-271.136488
 20
-406.821653
 30
0.0
 40
10.0
 50
212.005455
 51
147.994545
  0
LINE
  8
0
 10
-332.434418
 20
-400.390729
 30
0.0
 11
-332.434418
 21
-413.252578
 31
0.0
  0
LINE
  8
0
 10
-359.012133
 20
-399.821653
 30
0.0
 11
-359.012133
 21
-413.821653
 31
0.0
  0
LINE
  8
0
 10
-279.616465
 20
-409.836616
 30
0.0
 11
-279.616465
 21
-412.121653
 31
0.0
  0
CIRCLE
  8
0
 10
-321.136488
 20
-406.821653
 30
0.0
 40
6.0
  0
CIRCLE
  8
0
 10
-321.136488
 20
-406.821653
 30
0.0
 40
7.310096
  0
LINE
  8
0
 10
-420.741963
 20
-348.804489
 30
0.0
 11
-409.741963
 21
-348.804489
 31
0.0
  0
ARC
  8
0
 10
-415.241963
 20
-357.156135
 30
0.0
 40
10.0
 50
123.367013
 51
56.632987
  0
ARC
  8
0
 10
-391.910812
 20
-336.348771
 30
0.0
 40
19.086387
 50
161.495073
 51
200.895259
  0
ARC
  8
0
 10
-439.677158
 20
-314.870265
 30
0.0
 40
33.435285
 50
332.534665
 51
19.016292
  0
ARC
  8
0
 10
-431.786411
 20
-310.979115
 30
0.0
 40
24.732105
 50
16.449282
 51
38.188086
  0
ARC
  8
0
 10
-398.697516
 20
-310.979115
 30
0.0
 40
24.732105
 50
141.811914
 51
163.550718
  0
ARC
  8
0
 10
-438.573115
 20
-336.348771
 30
0.0
 40
19.086387
 50
339.104741
 51
18.504927
  0
ARC
  8
0
 10
-390.806769
 20
-314.870265
 30
0.0
 40
33.435285
 50
160.983708
 51
207.465335
  0
ARC
  8
0
 10
-415.241963
 20
-297.656135
 30
0.0
 40
3.5
 50
34.2045
 51
145.7955
  0
LINE
  8
0
 10
-409.741963
 20
-348.804489
 30
0.0
 11
-409.741963
 21
-343.156135
 31
0.0
  0
LINE
  8
0
 10
-420.741963
 20
-348.804489
 30
0.0
 11
-420.741963
 21
-343.156135
 31
0.0
  0
LINE
  8
0
 10
-420.741963
 20
-343.156135
 30
0.0
 11
-409.741963
 21
-343.156135
 31
0.0
  0
ARC
  8
0
 10
-415.241963
 20
-357.156135
 30
0.0
 40
13.0
 50
124.216051
 51
235.783949
  0
ARC
  8
0
 10
-415.241963
 20
-357.156135
 30
0.0
 40
14.0
 50
113.132396
 51
66.867604
  0
LINE
  8
0
 10
-366.392261
 20
-97.986158
 30
0.0
 11
-366.392261
 21
-105.353276
 31
0.0
  0
ARC
  8
0
 10
-359.290754
 20
-101.669717
 30
0.0
 40
8.0
 50
207.415819
 51
335.117875
  0
LINE
  8
0
 10
-376.179651
 20
-97.769717
 30
0.0
 11
-376.179651
 21
-105.569717
 31
0.0
  0
LINE
  8
0
 10
-340.003897
 20
-98.569717
 30
0.0
 11
-340.003897
 21
-104.769717
 31
0.0
  0
LINE
  8
0
 10
-352.033352
 20
-98.303695
 30
0.0
 11
-352.033352
 21
-105.035739
 31
0.0
  0
LINE
  8
0
 10
-340.003897
 20
-74.158161
 30
0.0
 11
-340.003897
 21
-80.358161
 31
0.0
  0
LINE
  8
0
 10
-352.033352
 20
-73.892139
 30
0.0
 11
-352.033352
 21
-80.624184
 31
0.0
  0
ARC
  8
0
 10
-334.290754
 20
-77.258161
 30
0.0
 40
6.5
 50
208.484635
 51
52.020128
  0
ARC
  8
0
 10
-359.290754
 20
-77.258161
 30
0.0
 40
8.0
 50
24.882125
 51
152.584181
  0
CIRCLE
  8
0
 10
-334.290754
 20
-101.669717
 30
0.0
 40
5.0
  0
ARC
  8
0
 10
-359.290754
 20
-101.669717
 30
0.0
 40
8.0
 50
24.882125
 51
152.584181
  0
ARC
  8
0
 10
-334.290754
 20
-101.669717
 30
0.0
 40
6.5
 50
208.484635
 51
151.515365
  0
ARC
  8
0
 10
-384.290754
 20
-101.669717
 30
0.0
 40
9.0
 50
25.679289
 51
334.320711
  0
LINE
  8
0
 10
-340.003897
 20
-98.569717
 30
0.0
 11
-352.033352
 21
-98.303695
 31
0.0
  0
LINE
  8
0
 10
-340.003897
 20
-104.769717
 30
0.0
 11
-352.033352
 21
-105.035739
 31
0.0
  0
LINE
  8
0
 10
-366.392261
 20
-97.986158
 30
0.0
 11
-376.179651
 21
-97.769717
 31
0.0
  0
LINE
  8
0
 10
-366.392261
 20
-105.353276
 30
0.0
 11
-376.179651
 21
-105.569717
 31
0.0
  0
LINE
  8
0
  6
CENTER
 10
-359.290754
 20
-67.841413
 30
0.0
 11
-359.290754
 21
-87.428249
 31
0.0
  0
LINE
  8
0
 10
-362.790754
 20
-72.758161
 30
0.0
 11
-362.790754
 21
-83.758161
 31
0.0
  0
ARC
  8
0
 10
-359.290754
 20
-77.258161
 30
0.0
 40
8.0
 50
207.415819
 51
234.340912
  0
LINE
  8
0
 10
-354.627065
 20
-83.758161
 30
0.0
 11
-363.954444
 21
-83.758161
 31
0.0
  0
LINE
  8
0
 10
-330.290754
 20
-72.134686
 30
0.0
 11
-338.290754
 21
-72.134686
 31
0.0
  0
LINE
  8
0
 10
-366.392261
 20
-80.941721
 30
0.0
 11
-376.179651
 21
-81.158161
 31
0.0
  0
LINE
  8
0
 10
-366.392261
 20
-73.574602
 30
0.0
 11
-376.179651
 21
-73.358161
 31
0.0
  0
LINE
  8
0
 10
-340.003897
 20
-80.358161
 30
0.0
 11
-352.033352
 21
-80.624184
 31
0.0
  0
LINE
  8
0
 10
-340.003897
 20
-74.158161
 30
0.0
 11
-352.033352
 21
-73.892139
 31
0.0
  0
ARC
  8
0
 10
-384.290754
 20
-77.258161
 30
0.0
 40
9.0
 50
25.679289
 51
334.320711
  0
ARC
  8
0
 10
-359.290754
 20
-77.258161
 30
0.0
 40
8.0
 50
305.659088
 51
335.117875
  0
ARC
  8
0
 10
-334.290754
 20
-77.258161
 30
0.0
 40
6.5
 50
127.979872
 51
151.515365
  0
LINE
  8
0
 10
-330.790754
 20
-72.134686
 30
0.0
 11
-330.790754
 21
-69.008161
 31
0.0
  0
ARC
  8
0
 10
-322.692012
 20
-64.275735
 30
0.0
 40
9.380058
 50
150.606295
 51
210.299488
  0
ARC
  8
0
 10
-346.611202
 20
-52.457809
 30
0.0
 40
17.320521
 50
335.385743
 51
29.004119
  0
ARC
  8
0
 10
-337.111806
 20
-46.668726
 30
0.0
 40
6.222335
 50
24.791795
 51
45.601419
  0
ARC
  8
0
 10
-331.469703
 20
-46.668726
 30
0.0
 40
6.222335
 50
134.398581
 51
155.208205
  0
ARC
  8
0
 10
-345.889497
 20
-64.275735
 30
0.0
 40
9.380058
 50
329.700512
 51
29.393705
  0
ARC
  8
0
 10
-321.970306
 20
-52.457809
 30
0.0
 40
17.320521
 50
150.995881
 51
204.614257
  0
ARC
  8
0
 10
-334.290754
 20
-43.508161
 30
0.0
 40
2.0
 50
39.987123
 51
140.012877
  0
LINE
  8
0
 10
-337.790754
 20
-69.008161
 30
0.0
 11
-330.790754
 21
-69.008161
 31
0.0
  0
LINE
  8
0
 10
-337.790754
 20
-72.134686
 30
0.0
 11
-337.790754
 21
-69.008161
 31
0.0
  0
LINE
  8
0
 10
-359.290754
 20
-72.758161
 30
0.0
 11
-362.790754
 21
-72.758161
 31
0.0
  0
LINE
  8
0
 10
-362.790754
 20
-72.758161
 30
0.0
 11
-359.290754
 21
-70.737435
 31
0.0
  0
LINE
  8
0
 10
-532.68671
 20
-71.780936
 30
0.0
 11
-525.68671
 21
-71.780936
 31
0.0
  0
LINE
  8
0
 10
-418.681487
 20
-71.780936
 30
0.0
 11
-411.681487
 21
-71.780936
 31
0.0
  0
LINE
  8
0
 10
-419.845177
 20
-83.758161
 30
0.0
 11
-410.517797
 21
-83.758161
 31
0.0
  0
ARC
  8
0
 10
-415.181487
 20
-77.258161
 30
0.0
 40
8.0
 50
305.659088
 51
64.05552
  0
ARC
  8
0
 10
-415.181487
 20
-77.258161
 30
0.0
 40
8.0
 50
115.94448
 51
234.340912
  0
LINE
  8
0
 10
-418.681487
 20
-71.780936
 30
0.0
 11
-418.681487
 21
-69.008161
 31
0.0
  0
LINE
  8
0
 10
-418.681487
 20
-69.008161
 30
0.0
 11
-411.681487
 21
-69.008161
 31
0.0
  0
ARC
  8
0
 10
-415.181487
 20
-43.508161
 30
0.0
 40
2.0
 50
39.987123
 51
140.012877
  0
ARC
  8
0
 10
-402.861039
 20
-52.457809
 30
0.0
 40
17.320521
 50
150.995881
 51
204.614257
  0
ARC
  8
0
 10
-426.78023
 20
-64.275735
 30
0.0
 40
9.380058
 50
329.700512
 51
29.393705
  0
ARC
  8
0
 10
-412.360435
 20
-46.668726
 30
0.0
 40
6.222335
 50
134.398581
 51
155.208205
  0
ARC
  8
0
 10
-418.002539
 20
-46.668726
 30
0.0
 40
6.222335
 50
24.791795
 51
45.601419
  0
ARC
  8
0
 10
-427.501935
 20
-52.457809
 30
0.0
 40
17.320521
 50
335.385743
 51
29.004119
  0
ARC
  8
0
 10
-403.582744
 20
-64.275735
 30
0.0
 40
9.380058
 50
150.606295
 51
210.299488
  0
LINE
  8
0
 10
-411.681487
 20
-71.780936
 30
0.0
 11
-411.681487
 21
-69.008161
 31
0.0
  0
ARC
  8
0
 10
-415.181487
 20
-77.258161
 30
0.0
 40
6.5
 50
122.57897
 51
57.42103
  0
ARC
  8
0
 10
-415.181487
 20
-77.258161
 30
0.0
 40
9.0
 50
112.665457
 51
67.334543
  0
INSERT
  8
0
  2
*X5
 10
-11.594777
 20
-21.487474
 30
0.0
  0
CIRCLE
  8
0
 10
16.847394
 20
-113.602448
 30
0.0
 40
6.5
  0
LINE
  8
0
 10
10.323592
 20
-109.902448
 30
0.0
 11
10.323592
 21
-117.302448
 31
0.0
  0
LINE
  8
0
 10
-2.588281
 20
-109.491201
 30
0.0
 11
-2.588281
 21
-117.713695
 31
0.0
  0
LINE
  8
0
 10
-19.437948
 20
-108.954534
 30
0.0
 11
-19.437948
 21
-118.250362
 31
0.0
  0
LINE
  8
0
 10
-30.492352
 20
-108.602448
 30
0.0
 11
-30.492352
 21
-118.602448
 31
0.0
  0
ARC
  8
0
 10
-11.152606
 20
-113.602448
 30
0.0
 40
9.5
 50
25.643025
 51
150.708433
  0
ARC
  8
0
 10
16.847394
 20
-113.602448
 30
0.0
 40
7.5
 50
209.559908
 51
150.440092
  0
LINE
  8
0
 10
10.323592
 20
-73.558161
 30
0.0
 11
10.323592
 21
-80.958161
 31
0.0
  0
LINE
  8
0
 10
-2.588281
 20
-73.146914
 30
0.0
 11
-2.588281
 21
-81.369408
 31
0.0
  0
ARC
  8
0
 10
16.847394
 20
-77.258161
 30
0.0
 40
7.5
 50
209.559908
 51
57.769047
  0
ARC
  8
0
 10
-11.152606
 20
-77.258161
 30
0.0
 40
9.5
 50
25.643025
 51
150.708433
  0
ARC
  8
0
 10
-39.152606
 20
-113.602448
 30
0.0
 40
10.0
 50
30.0
 51
330.0
  0
LINE
  8
0
 10
-30.492352
 20
-108.602448
 30
0.0
 11
-19.437948
 21
-108.954534
 31
0.0
  0
LINE
  8
0
 10
-30.492352
 20
-118.602448
 30
0.0
 11
-19.437948
 21
-118.250362
 31
0.0
  0
LINE
  8
0
 10
-2.588281
 20
-109.491201
 30
0.0
 11
10.323592
 21
-109.902448
 31
0.0
  0
LINE
  8
0
 10
-2.588281
 20
-117.713695
 30
0.0
 11
10.323592
 21
-117.302448
 31
0.0
  0
ARC
  8
0
 10
-11.152606
 20
-113.602448
 30
0.0
 40
9.5
 50
209.291567
 51
334.356975
  0
ARC
  8
0
 10
-70.972742
 20
-77.258161
 30
0.0
 40
9.5
 50
296.525352
 51
65.098938
  0
LINE
  8
0
 10
-66.730102
 20
-85.758161
 30
0.0
 11
-75.215383
 21
-85.758161
 31
0.0
  0
LINE
  8
0
 10
-74.972742
 20
-67.258161
 30
0.0
 11
-66.972742
 21
-67.258161
 31
0.0
  0
LINE
  8
0
 10
-74.972742
 20
-70.913873
 30
0.0
 11
-74.972742
 21
-67.258161
 31
0.0
  0
LINE
  8
0
 10
-66.972742
 20
-70.913873
 30
0.0
 11
-66.972742
 21
-67.258161
 31
0.0
  0
ARC
  8
0
 10
-70.972742
 20
-34.758161
 30
0.0
 40
2.5
 50
33.251497
 51
146.748503
  0
ARC
  8
0
 10
-55.200457
 20
-46.992825
 30
0.0
 40
22.274338
 50
156.838583
 51
201.644118
  0
ARC
  8
0
 10
-89.585316
 20
-62.327009
 30
0.0
 40
15.422178
 50
341.352542
 51
27.488861
  0
ARC
  8
0
 10
-56.17347
 20
-45.636775
 30
0.0
 40
20.864283
 50
144.048582
 51
159.212029
  0
ARC
  8
0
 10
-85.772015
 20
-45.636775
 30
0.0
 40
20.864283
 50
20.787971
 51
35.951418
  0
ARC
  8
0
 10
-86.745027
 20
-46.992825
 30
0.0
 40
22.274338
 50
338.355882
 51
23.161417
  0
ARC
  8
0
 10
-52.360169
 20
-62.327009
 30
0.0
 40
15.422178
 50
152.511139
 51
198.647458
  0
LINE
  8
0
 10
-74.972742
 20
-70.913873
 30
0.0
 11
-66.972742
 21
-70.913873
 31
0.0
  0
ARC
  8
0
 10
-70.972742
 20
-77.258161
 30
0.0
 40
7.5
 50
122.230953
 51
57.769047
  0
ARC
  8
0
 10
-70.972742
 20
-77.258161
 30
0.0
 40
9.5
 50
114.901062
 51
243.474648
  0
ARC
  8
0
 10
-70.972742
 20
-77.258161
 30
0.0
 40
10.0
 50
113.578178
 51
66.421822
  0
LINE
  8
0
  6
CENTER
 10
-11.152606
 20
-62.593489
 30
0.0
 11
-11.152606
 21
-91.385489
 31
0.0
  0
ARC
  8
0
 10
-11.152606
 20
-77.258161
 30
0.0
 40
9.5
 50
209.291567
 51
243.474648
  0
LINE
  8
0
 10
-15.152606
 20
-71.758161
 30
0.0
 11
-15.152606
 21
-85.758161
 31
0.0
  0
LINE
  8
0
 10
12.847394
 20
-70.913873
 30
0.0
 11
20.847394
 21
-70.913873
 31
0.0
  0
ARC
  8
0
 10
-11.152606
 20
-77.258161
 30
0.0
 40
9.5
 50
296.525352
 51
334.356975
  0
LINE
  8
0
 10
-15.395246
 20
-85.758161
 30
0.0
 11
-6.909965
 21
-85.758161
 31
0.0
  0
LINE
  8
0
 10
-2.588281
 20
-81.369408
 30
0.0
 11
10.323592
 21
-80.958161
 31
0.0
  0
LINE
  8
0
 10
-2.588281
 20
-73.146914
 30
0.0
 11
10.323592
 21
-73.558161
 31
0.0
  0
LINE
  8
0
 10
-30.492352
 20
-82.258161
 30
0.0
 11
-19.437948
 21
-81.906075
 31
0.0
  0
LINE
  8
0
 10
-30.492352
 20
-72.258161
 30
0.0
 11
-19.437948
 21
-72.610248
 31
0.0
  0
ARC
  8
0
 10
16.847394
 20
-77.258161
 30
0.0
 40
7.5
 50
122.230953
 51
150.440092
  0
ARC
  8
0
 10
-39.152606
 20
-77.258161
 30
0.0
 40
10.0
 50
30.0
 51
330.0
  0
ARC
  8
0
 10
35.459968
 20
-62.327009
 30
0.0
 40
15.422178
 50
152.511139
 51
198.647458
  0
ARC
  8
0
 10
1.075109
 20
-46.992825
 30
0.0
 40
22.274338
 50
338.355882
 51
23.161417
  0
ARC
  8
0
 10
2.048122
 20
-45.636775
 30
0.0
 40
20.864283
 50
20.787971
 51
35.951418
  0
ARC
  8
0
 10
31.646667
 20
-45.636775
 30
0.0
 40
20.864283
 50
144.048582
 51
159.212029
  0
ARC
  8
0
 10
-1.765179
 20
-62.327009
 30
0.0
 40
15.422178
 50
341.352542
 51
27.488861
  0
ARC
  8
0
 10
32.619679
 20
-46.992825
 30
0.0
 40
22.274338
 50
156.838583
 51
201.644118
  0
ARC
  8
0
 10
16.847394
 20
-34.758161
 30
0.0
 40
2.5
 50
33.251497
 51
146.748503
  0
LINE
  8
0
 10
20.847394
 20
-70.913873
 30
0.0
 11
20.847394
 21
-67.258161
 31
0.0
  0
LINE
  8
0
 10
12.847394
 20
-70.913873
 30
0.0
 11
12.847394
 21
-67.258161
 31
0.0
  0
LINE
  8
0
 10
12.847394
 20
-67.258161
 30
0.0
 11
20.847394
 21
-67.258161
 31
0.0
  0
LINE
  8
0
 10
-15.152606
 20
-71.758161
 30
0.0
 11
-11.152606
 21
-71.758161
 31
0.0
  0
LINE
  8
0
 10
-15.152606
 20
-71.758161
 30
0.0
 11
-11.152606
 21
-69.44876
 31
0.0
  0
INSERT
  8
0
  2
*X6
 10
12.883086
 20
-31.948903
 30
0.0
  0
ARC
  8
0
 10
-413.298099
 20
-200.944898
 30
0.0
 40
10.0
 50
301.788331
 51
63.256316
  0
LINE
  8
0
 10
-408.030272
 20
-209.444898
 30
0.0
 11
-418.565926
 21
-209.444898
 31
0.0
  0
ARC
  8
0
 10
-413.298099
 20
-200.944898
 30
0.0
 40
11.0
 50
114.14774
 51
65.85226
  0
ARC
  8
0
 10
-413.298099
 20
-200.944898
 30
0.0
 40
10.0
 50
116.743684
 51
238.211669
  0
LINE
  8
0
 10
-417.798099
 20
-194.33052
 30
0.0
 11
-417.798099
 21
-189.844898
 31
0.0
  0
LINE
  8
0
 10
-408.798099
 20
-194.33052
 30
0.0
 11
-408.798099
 21
-189.844898
 31
0.0
  0
LINE
  8
0
 10
-417.798099
 20
-189.844898
 30
0.0
 11
-408.798099
 21
-189.844898
 31
0.0
  0
ARC
  8
0
 10
-413.298099
 20
-153.344898
 30
0.0
 40
3.0
 50
32.474689
 51
147.525311
  0
ARC
  8
0
 10
-390.297102
 20
-167.339896
 30
0.0
 40
30.084224
 50
155.594737
 51
203.943354
  0
ARC
  8
0
 10
-435.092872
 20
-184.687566
 30
0.0
 40
18.047362
 50
343.395325
 51
16.542267
  0
ARC
  8
0
 10
-397.296913
 20
-164.748868
 30
0.0
 40
22.645561
 50
144.920304
 51
154.246747
  0
ARC
  8
0
 10
-429.299286
 20
-164.748868
 30
0.0
 40
22.645561
 50
25.753253
 51
35.079696
  0
ARC
  8
0
 10
-436.299096
 20
-167.339896
 30
0.0
 40
30.084224
 50
336.056646
 51
24.405263
  0
ARC
  8
0
 10
-391.503326
 20
-184.687566
 30
0.0
 40
18.047362
 50
163.457733
 51
196.604675
  0
ARC
  8
0
 10
-413.298099
 20
-200.944898
 30
0.0
 40
8.0
 50
124.228866
 51
55.771134
  0
LINE
  8
0
 10
-417.798099
 20
-194.33052
 30
0.0
 11
-408.798099
 21
-194.33052
 31
0.0
  0
LINE
  8
0
 10
-321.104817
 20
-238.891499
 30
0.0
 11
-321.104817
 21
-241.150038
 31
0.0
  0
LINE
  8
0
 10
-356.908052
 20
-231.354516
 30
0.0
 11
-356.908052
 21
-242.04556
 31
0.0
  0
LINE
  8
0
 10
-373.079198
 20
-230.950038
 30
0.0
 11
-373.079198
 21
-242.450038
 31
0.0
  0
ARC
  8
0
 10
-314.456697
 20
-236.700038
 30
0.0
 40
8.0
 50
213.796855
 51
146.203145
  0
ARC
  8
0
 10
-382.456697
 20
-236.700038
 30
0.0
 40
11.0
 50
31.51537
 51
328.48463
  0
LINE
  8
0
 10
-373.079198
 20
-230.950038
 30
0.0
 11
-356.908052
 21
-231.354516
 31
0.0
  0
LINE
  8
0
 10
-373.079198
 20
-242.450038
 30
0.0
 11
-356.908052
 21
-242.04556
 31
0.0
  0
ARC
  8
0
 10
-348.456697
 20
-236.700038
 30
0.0
 40
10.0
 50
29.447945
 51
147.686452
  0
LINE
  8
0
 10
-339.74867
 20
-241.616364
 30
0.0
 11
-321.104817
 21
-241.150038
 31
0.0
  0
LINE
  8
0
 10
-339.74867
 20
-231.783712
 30
0.0
 11
-321.104817
 21
-232.250038
 31
0.0
  0
LINE
  8
0
 10
-339.74867
 20
-231.783712
 30
0.0
 11
-339.74867
 21
-241.616364
 31
0.0
  0
LINE
  8
0
 10
-321.104817
 20
-232.250038
 30
0.0
 11
-321.104817
 21
-234.508577
 31
0.0
  0
ARC
  8
0
 10
-348.456697
 20
-236.700038
 30
0.0
 40
10.0
 50
212.313548
 51
330.552055
  0
ARC
  8
0
 10
-314.456697
 20
-200.944898
 30
0.0
 40
8.0
 50
124.228866
 51
146.203145
  0
LINE
  8
0
 10
-318.956697
 20
-194.33052
 30
0.0
 11
-309.956697
 21
-194.33052
 31
0.0
  0
LINE
  8
0
  6
CENTER
 10
-348.456697
 20
-186.993774
 30
0.0
 11
-348.456697
 21
-214.77389
 31
0.0
  0
LINE
  8
0
 10
-352.456697
 20
-194.444898
 30
0.0
 11
-352.456697
 21
-209.444898
 31
0.0
  0
ARC
  8
0
 10
-348.456697
 20
-200.944898
 30
0.0
 40
10.0
 50
301.788331
 51
330.552055
  0
LINE
  8
0
 10
-353.724524
 20
-209.444898
 30
0.0
 11
-343.18887
 21
-209.444898
 31
0.0
  0
LINE
  8
0
 10
-321.104817
 20
-196.494898
 30
0.0
 11
-321.104817
 21
-205.394898
 31
0.0
  0
LINE
  8
0
 10
-339.74867
 20
-196.028572
 30
0.0
 11
-339.74867
 21
-205.861225
 31
0.0
  0
LINE
  8
0
 10
-339.74867
 20
-196.028572
 30
0.0
 11
-321.104817
 21
-196.494898
 31
0.0
  0
LINE
  8
0
 10
-339.74867
 20
-205.861225
 30
0.0
 11
-321.104817
 21
-205.394898
 31
0.0
  0
ARC
  8
0
 10
-348.456697
 20
-200.944898
 30
0.0
 40
10.0
 50
29.447945
 51
147.686452
  0
LINE
  8
0
 10
-373.079198
 20
-206.694898
 30
0.0
 11
-356.908052
 21
-206.290421
 31
0.0
  0
LINE
  8
0
 10
-373.079198
 20
-195.194898
 30
0.0
 11
-356.908052
 21
-195.599376
 31
0.0
  0
ARC
  8
0
 10
-382.456697
 20
-200.944898
 30
0.0
 40
11.0
 50
31.51537
 51
328.48463
  0
ARC
  8
0
 10
-348.456697
 20
-200.944898
 30
0.0
 40
10.0
 50
212.313548
 51
238.211669
  0
ARC
  8
0
 10
-314.456697
 20
-200.944898
 30
0.0
 40
8.0
 50
213.796855
 51
55.771134
  0
CIRCLE
  8
0
 10
-314.456697
 20
-236.700038
 30
0.0
 40
7.0
  0
ARC
  8
0
 10
-292.661924
 20
-184.687566
 30
0.0
 40
18.047362
 50
163.457733
 51
196.604675
  0
ARC
  8
0
 10
-337.457694
 20
-167.339896
 30
0.0
 40
30.084224
 50
336.056646
 51
24.405263
  0
ARC
  8
0
 10
-330.457884
 20
-164.748868
 30
0.0
 40
22.645561
 50
25.753253
 51
35.079696
  0
ARC
  8
0
 10
-298.455511
 20
-164.748868
 30
0.0
 40
22.645561
 50
144.920304
 51
154.246747
  0
ARC
  8
0
 10
-336.251471
 20
-184.687566
 30
0.0
 40
18.047362
 50
343.395325
 51
16.542267
  0
ARC
  8
0
 10
-291.4557
 20
-167.339896
 30
0.0
 40
30.084224
 50
155.594737
 51
203.943354
  0
ARC
  8
0
 10
-314.456697
 20
-153.344898
 30
0.0
 40
3.0
 50
32.474689
 51
147.525311
  0
LINE
  8
0
 10
-318.956697
 20
-189.844898
 30
0.0
 11
-309.956697
 21
-189.844898
 31
0.0
  0
LINE
  8
0
 10
-309.956697
 20
-194.33052
 30
0.0
 11
-309.956697
 21
-189.844898
 31
0.0
  0
LINE
  8
0
 10
-318.956697
 20
-194.33052
 30
0.0
 11
-318.956697
 21
-189.844898
 31
0.0
  0
LINE
  8
0
 10
-352.456697
 20
-194.444898
 30
0.0
 11
-348.456697
 21
-194.444898
 31
0.0
  0
LINE
  8
0
 10
-352.456697
 20
-194.444898
 30
0.0
 11
-348.456697
 21
-192.135497
 31
0.0
  0
INSERT
  8
0
  2
*X7
 10
-36.07264
 20
-34.9184
 30
0.0
  0
LINE
  8
0
 10
61.383559
 20
-240.796522
 30
0.0
 11
61.383559
 21
-243.240419
 31
0.0
  0
LINE
  8
0
 10
-2.264078
 20
-232.040419
 30
0.0
 11
-2.264078
 21
-245.040419
 31
0.0
  0
LINE
  8
0
 10
18.200406
 20
-232.619169
 30
0.0
 11
18.200406
 21
-244.461669
 31
0.0
  0
ARC
  8
0
 10
69.058844
 20
-238.540419
 30
0.0
 40
9.0
 50
211.481432
 51
148.518568
  0
ARC
  8
0
 10
-12.941156
 20
-238.540419
 30
0.0
 40
12.5
 50
31.332251
 51
328.667749
  0
LINE
  8
0
 10
-2.264078
 20
-232.040419
 30
0.0
 11
18.200406
 21
-232.619169
 31
0.0
  0
LINE
  8
0
 10
-2.264078
 20
-245.040419
 30
0.0
 11
18.200406
 21
-244.461669
 31
0.0
  0
LINE
  8
0
 10
38.236171
 20
-233.185795
 30
0.0
 11
61.383559
 21
-233.840419
 31
0.0
  0
LINE
  8
0
 10
38.236171
 20
-243.895044
 30
0.0
 11
61.383559
 21
-243.240419
 31
0.0
  0
ARC
  8
0
 10
28.058844
 20
-238.540419
 30
0.0
 40
11.5
 50
27.750323
 51
149.00981
  0
LINE
  8
0
 10
38.236171
 20
-233.185795
 30
0.0
 11
38.236171
 21
-243.895044
 31
0.0
  0
LINE
  8
0
 10
61.383559
 20
-233.840419
 30
0.0
 11
61.383559
 21
-236.284317
 31
0.0
  0
ARC
  8
0
 10
28.058844
 20
-238.540419
 30
0.0
 40
11.5
 50
210.99019
 51
332.249677
  0
ARC
  8
0
 10
-51.972007
 20
-201.221002
 30
0.0
 40
11.5
 50
302.023996
 51
64.228538
  0
LINE
  8
0
 10
-45.873851
 20
-210.971002
 30
0.0
 11
-58.070162
 21
-210.971002
 31
0.0
  0
ARC
  8
0
 10
-51.972007
 20
-201.221002
 30
0.0
 40
12.5
 50
113.578178
 51
66.421822
  0
ARC
  8
0
 10
-51.972007
 20
-201.221002
 30
0.0
 40
11.5
 50
115.771462
 51
237.976004
  0
LINE
  8
0
 10
-56.972007
 20
-193.737687
 30
0.0
 11
-56.972007
 21
-189.221002
 31
0.0
  0
LINE
  8
0
 10
-46.972007
 20
-193.737687
 30
0.0
 11
-46.972007
 21
-189.221002
 31
0.0
  0
LINE
  8
0
 10
-56.972007
 20
-189.221002
 30
0.0
 11
-46.972007
 21
-189.221002
 31
0.0
  0
ARC
  8
0
 10
-51.972007
 20
-150.221002
 30
0.0
 40
3.5
 50
37.340026
 51
142.659974
  0
ARC
  8
0
 10
-33.738187
 20
-163.67014
 30
0.0
 40
26.289505
 50
154.312803
 51
205.210117
  0
ARC
  8
0
 10
-43.168292
 20
-158.463453
 30
0.0
 40
15.546221
 50
138.183718
 51
156.541547
  0
ARC
  8
0
 10
-76.857421
 20
-182.798122
 30
0.0
 40
20.896963
 50
342.099827
 51
22.302295
  0
ARC
  8
0
 10
-60.775722
 20
-158.463453
 30
0.0
 40
15.546221
 50
23.458453
 51
41.816282
  0
ARC
  8
0
 10
-70.205827
 20
-163.67014
 30
0.0
 40
26.289505
 50
334.789883
 51
25.687197
  0
ARC
  8
0
 10
-27.086593
 20
-182.798122
 30
0.0
 40
20.896963
 50
157.697705
 51
197.900173
  0
ARC
  8
0
 10
-51.972007
 20
-201.221002
 30
0.0
 40
9.0
 50
123.748989
 51
56.251011
  0
LINE
  8
0
 10
-56.972007
 20
-193.737687
 30
0.0
 11
-46.972007
 21
-193.737687
 31
0.0
  0
ARC
  8
0
 10
69.058844
 20
-201.221002
 30
0.0
 40
9.0
 50
123.748989
 51
148.518568
  0
LINE
  8
0
 10
64.058844
 20
-193.737687
 30
0.0
 11
74.058844
 21
-193.737687
 31
0.0
  0
LINE
  8
0
 10
23.058844
 20
-210.971002
 30
0.0
 11
23.058844
 21
-193.971002
 31
0.0
  0
LINE
  8
0
  6
CENTER
 10
28.058844
 20
-218.259995
 30
0.0
 11
28.058844
 21
-187.01001
 31
0.0
  0
ARC
  8
0
 10
28.058844
 20
-201.221002
 30
0.0
 40
11.5
 50
302.023996
 51
332.249677
  0
LINE
  8
0
 10
34.156999
 20
-210.971002
 30
0.0
 11
21.960688
 21
-210.971002
 31
0.0
  0
LINE
  8
0
 10
61.383559
 20
-196.521002
 30
0.0
 11
61.383559
 21
-205.921002
 31
0.0
  0
LINE
  8
0
 10
38.236171
 20
-195.866378
 30
0.0
 11
38.236171
 21
-206.575626
 31
0.0
  0
ARC
  8
0
 10
28.058844
 20
-201.221002
 30
0.0
 40
11.5
 50
27.750323
 51
149.00981
  0
LINE
  8
0
 10
38.236171
 20
-206.575626
 30
0.0
 11
61.383559
 21
-205.921002
 31
0.0
  0
LINE
  8
0
 10
38.236171
 20
-195.866378
 30
0.0
 11
61.383559
 21
-196.521002
 31
0.0
  0
LINE
  8
0
 10
-2.264078
 20
-207.721002
 30
0.0
 11
18.200406
 21
-207.142252
 31
0.0
  0
LINE
  8
0
 10
-2.264078
 20
-194.721002
 30
0.0
 11
18.200406
 21
-195.299752
 31
0.0
  0
ARC
  8
0
 10
-12.941156
 20
-201.221002
 30
0.0
 40
12.5
 50
31.332251
 51
328.667749
  0
ARC
  8
0
 10
28.058844
 20
-201.221002
 30
0.0
 40
11.5
 50
210.99019
 51
237.976004
  0
ARC
  8
0
 10
69.058844
 20
-201.221002
 30
0.0
 40
9.0
 50
211.481432
 51
56.251011
  0
CIRCLE
  8
0
 10
69.058844
 20
-238.540419
 30
0.0
 40
8.0
  0
ARC
  8
0
 10
93.944257
 20
-182.798122
 30
0.0
 40
20.896963
 50
157.697705
 51
197.900173
  0
ARC
  8
0
 10
50.825023
 20
-163.67014
 30
0.0
 40
26.289505
 50
334.789883
 51
25.687197
  0
ARC
  8
0
 10
60.255129
 20
-158.463453
 30
0.0
 40
15.546221
 50
23.458453
 51
41.816282
  0
ARC
  8
0
 10
44.17343
 20
-182.798122
 30
0.0
 40
20.896963
 50
342.099827
 51
22.302295
  0
ARC
  8
0
 10
77.862559
 20
-158.463453
 30
0.0
 40
15.546221
 50
138.183718
 51
156.541547
  0
ARC
  8
0
 10
87.292664
 20
-163.67014
 30
0.0
 40
26.289505
 50
154.312803
 51
205.210117
  0
ARC
  8
0
 10
69.058844
 20
-150.221002
 30
0.0
 40
3.5
 50
37.340026
 51
142.659974
  0
LINE
  8
0
 10
64.058844
 20
-189.221002
 30
0.0
 11
74.058844
 21
-189.221002
 31
0.0
  0
LINE
  8
0
 10
74.058844
 20
-193.737687
 30
0.0
 11
74.058844
 21
-189.221002
 31
0.0
  0
LINE
  8
0
 10
64.058844
 20
-193.737687
 30
0.0
 11
64.058844
 21
-189.221002
 31
0.0
  0
LINE
  8
0
 10
28.058844
 20
-193.971002
 30
0.0
 11
23.058844
 21
-193.971002
 31
0.0
  0
LINE
  8
0
 10
23.058844
 20
-193.971002
 30
0.0
 11
28.058844
 21
-191.084251
 31
0.0
  0
INSERT
  8
0
  2
*X8
 10
-69.568663
 20
-38.191202
 30
0.0
  0
ARC
  8
0
 10
-219.241963
 20
-357.156135
 30
0.0
 40
14.0
 50
113.132396
 51
66.867604
  0
ARC
  8
0
 10
-219.241963
 20
-357.156135
 30
0.0
 40
13.0
 50
115.028999
 51
235.783949
  0
LINE
  8
0
 10
-224.741963
 20
-343.156135
 30
0.0
 11
-213.741963
 21
-343.156135
 31
0.0
  0
LINE
  8
0
 10
-224.741963
 20
-348.804489
 30
0.0
 11
-224.741963
 21
-343.156135
 31
0.0
  0
LINE
  8
0
 10
-213.741963
 20
-348.804489
 30
0.0
 11
-213.741963
 21
-343.156135
 31
0.0
  0
ARC
  8
0
 10
-219.241963
 20
-297.656135
 30
0.0
 40
3.5
 50
34.2045
 51
145.7955
  0
ARC
  8
0
 10
-194.806769
 20
-314.870265
 30
0.0
 40
33.435285
 50
160.983708
 51
207.465335
  0
ARC
  8
0
 10
-242.573115
 20
-336.348771
 30
0.0
 40
19.086387
 50
339.104741
 51
18.504927
  0
ARC
  8
0
 10
-202.697516
 20
-310.979115
 30
0.0
 40
24.732105
 50
141.811914
 51
163.550718
  0
ARC
  8
0
 10
-235.786411
 20
-310.979115
 30
0.0
 40
24.732105
 50
16.449282
 51
38.188086
  0
ARC
  8
0
 10
-243.677158
 20
-314.870265
 30
0.0
 40
33.435285
 50
332.534665
 51
19.016292
  0
ARC
  8
0
 10
-195.910812
 20
-336.348771
 30
0.0
 40
19.086387
 50
161.495073
 51
200.895259
  0
ARC
  8
0
 10
-219.241963
 20
-357.156135
 30
0.0
 40
10.0
 50
123.367013
 51
56.632987
  0
LINE
  8
0
 10
-224.741963
 20
-348.804489
 30
0.0
 11
-213.741963
 21
-348.804489
 31
0.0
  0
LINE
  8
0
 10
-83.616465
 20
-409.836616
 30
0.0
 11
-83.616465
 21
-412.121653
 31
0.0
  0
LINE
  8
0
 10
-163.012133
 20
-399.821653
 30
0.0
 11
-163.012133
 21
-413.821653
 31
0.0
  0
LINE
  8
0
 10
-136.434418
 20
-400.390729
 30
0.0
 11
-136.434418
 21
-413.252578
 31
0.0
  0
ARC
  8
0
 10
-75.136488
 20
-406.821653
 30
0.0
 40
10.0
 50
212.005455
 51
147.994545
  0
ARC
  8
0
 10
-175.136488
 20
-406.821653
 30
0.0
 40
14.0
 50
30.0
 51
330.0
  0
LINE
  8
0
 10
-163.012133
 20
-399.821653
 30
0.0
 11
-136.434418
 21
-400.390729
 31
0.0
  0
LINE
  8
0
 10
-163.012133
 20
-413.821653
 30
0.0
 11
-136.434418
 21
-413.252578
 31
0.0
  0
LINE
  8
0
 10
-113.573645
 20
-400.880218
 30
0.0
 11
-83.616465
 21
-401.521653
 31
0.0
  0
LINE
  8
0
 10
-113.573645
 20
-412.763089
 30
0.0
 11
-83.616465
 21
-412.121653
 31
0.0
  0
ARC
  8
0
 10
-125.136488
 20
-406.821653
 30
0.0
 40
13.0
 50
27.19585
 51
150.350919
  0
LINE
  8
0
 10
-83.616465
 20
-401.521653
 30
0.0
 11
-83.616465
 21
-403.806691
 31
0.0
  0
LINE
  8
0
 10
-113.573645
 20
-400.880218
 30
0.0
 11
-113.573645
 21
-412.763089
 31
0.0
  0
ARC
  8
0
 10
-125.136488
 20
-406.821653
 30
0.0
 40
13.0
 50
209.649081
 51
332.80415
  0
ARC
  8
0
 10
-75.136488
 20
-357.156135
 30
0.0
 40
10.0
 50
123.367013
 51
147.994545
  0
LINE
  8
0
 10
-80.636488
 20
-348.804489
 30
0.0
 11
-69.636488
 21
-348.804489
 31
0.0
  0
LINE
  8
0
 10
-131.136488
 20
-367.906135
 30
0.0
 11
-131.136488
 21
-348.906135
 31
0.0
  0
LINE
  8
0
  6
CENTER
 10
-125.136488
 20
-378.240884
 30
0.0
 11
-125.136488
 21
-335.811168
 31
0.0
  0
ARC
  8
0
 10
-125.136488
 20
-357.156135
 30
0.0
 40
13.0
 50
304.216051
 51
332.80415
  0
LINE
  8
0
 10
-132.446584
 20
-367.906135
 30
0.0
 11
-117.826392
 21
-367.906135
 31
0.0
  0
LINE
  8
0
 10
-113.573645
 20
-351.2147
 30
0.0
 11
-113.573645
 21
-363.097571
 31
0.0
  0
LINE
  8
0
 10
-83.616465
 20
-351.856135
 30
0.0
 11
-83.616465
 21
-362.456135
 31
0.0
  0
ARC
  8
0
 10
-125.136488
 20
-357.156135
 30
0.0
 40
13.0
 50
27.19585
 51
150.350919
  0
LINE
  8
0
 10
-113.573645
 20
-363.097571
 30
0.0
 11
-83.616465
 21
-362.456135
 31
0.0
  0
LINE
  8
0
 10
-113.573645
 20
-351.2147
 30
0.0
 11
-83.616465
 21
-351.856135
 31
0.0
  0
LINE
  8
0
 10
-163.012133
 20
-364.156135
 30
0.0
 11
-136.434418
 21
-363.58706
 31
0.0
  0
LINE
  8
0
 10
-163.012133
 20
-350.156135
 30
0.0
 11
-136.434418
 21
-350.725211
 31
0.0
  0
ARC
  8
0
 10
-175.136488
 20
-357.156135
 30
0.0
 40
14.0
 50
30.0
 51
330.0
  0
ARC
  8
0
 10
-125.136488
 20
-357.156135
 30
0.0
 40
13.0
 50
209.649081
 51
235.783949
  0
ARC
  8
0
 10
-75.136488
 20
-357.156135
 30
0.0
 40
10.0
 50
212.005455
 51
56.632987
  0
CIRCLE
  8
0
 10
-75.136488
 20
-406.821653
 30
0.0
 40
9.0
  0
ARC
  8
0
 10
-51.805337
 20
-336.348771
 30
0.0
 40
19.086387
 50
161.495073
 51
200.895259
  0
ARC
  8
0
 10
-99.571683
 20
-314.870265
 30
0.0
 40
33.435285
 50
332.534665
 51
19.016292
  0
ARC
  8
0
 10
-91.680936
 20
-310.979115
 30
0.0
 40
24.732105
 50
16.449282
 51
38.188086
  0
ARC
  8
0
 10
-58.592041
 20
-310.979115
 30
0.0
 40
24.732105
 50
141.811914
 51
163.550718
  0
ARC
  8
0
 10
-98.46764
 20
-336.348771
 30
0.0
 40
19.086387
 50
339.104741
 51
18.504927
  0
ARC
  8
0
 10
-50.701293
 20
-314.870265
 30
0.0
 40
33.435285
 50
160.983708
 51
207.465335
  0
ARC
  8
0
 10
-75.136488
 20
-297.656135
 30
0.0
 40
3.5
 50
34.2045
 51
145.7955
  0
LINE
  8
0
 10
-69.636488
 20
-348.804489
 30
0.0
 11
-69.636488
 21
-343.156135
 31
0.0
  0
LINE
  8
0
 10
-80.636488
 20
-348.804489
 30
0.0
 11
-80.636488
 21
-343.156135
 31
0.0
  0
LINE
  8
0
 10
-80.636488
 20
-343.156135
 30
0.0
 11
-69.636488
 21
-343.156135
 31
0.0
  0
LINE
  8
0
 10
-407.931868
 20
-346.406135
 30
0.0
 11
-409.741963
 21
-346.406135
 31
0.0
  0
LINE
  8
0
 10
-420.741963
 20
-346.406135
 30
0.0
 11
-422.552059
 21
-346.406135
 31
0.0
  0
LINE
  8
0
 10
-407.931868
 20
-367.906135
 30
0.0
 11
-422.552059
 21
-367.906135
 31
0.0
  0
ARC
  8
0
 10
-415.241963
 20
-357.156135
 30
0.0
 40
13.0
 50
304.216051
 51
55.783949
  0
LINE
  8
0
 10
-211.931868
 20
-367.906135
 30
0.0
 11
-226.552059
 21
-367.906135
 31
0.0
  0
ARC
  8
0
 10
-219.241963
 20
-357.156135
 30
0.0
 40
13.0
 50
304.216051
 51
64.971001
  0
LINE
  8
0
 10
-131.136488
 20
-348.906135
 30
0.0
 11
-125.136488
 21
-348.906135
 31
0.0
  0
LINE
  8
0
 10
-131.136488
 20
-348.906135
 30
0.0
 11
-125.136488
 21
-345.442034
 31
0.0
  0
INSERT
  8
0
  2
*X9
 10
-58.666667
 20
7.222626
 30
0.0
  0
ENDSEC
  0
EOF
