  0
SECTION
  2
HEADER
  9
$ACADVER
  1
AC1009
  9
$INSBASE
 10
0.0
 20
0.0
 30
0.0
  9
$EXTMIN
 10
-386.858064
 20
135.494645
 30
0.0
  9
$EXTMAX
 10
-76.317815
 20
369.351705
 30
0.0
  9
$LIMMIN
 10
0.0
 20
0.0
  9
$LIMMAX
 10
12.0
 20
9.0
  9
$ORTHOMODE
 70
     1
  9
$REGENMODE
 70
     1
  9
$FILLMODE
 70
     1
  9
$QTEXTMODE
 70
     0
  9
$MIRRTEXT
 70
     1
  9
$DRAGMODE
 70
     2
  9
$LTSCALE
 40
4.0
  9
$OSMODE
 70
     0
  9
$ATTMODE
 70
     1
  9
$TEXTSIZE
 40
10.647957
  9
$TRACEWID
 40
0.05
  9
$TEXTSTYLE
  7
STANDARD
  9
$CLAYER
  8
0
  9
$CELTYPE
  6
BYLAYER
  9
$CECOLOR
 62
   256
  9
$DIMSCALE
 40
1.0
  9
$DIMASZ
 40
2.5
  9
$DIMEXO
 40
0.0
  9
$DIMDLI
 40
5.0
  9
$DIMRND
 40
0.0
  9
$DIMDLE
 40
0.0
  9
$DIMEXE
 40
1.0
  9
$DIMTP
 40
0.0
  9
$DIMTM
 40
0.0
  9
$DIMTXT
 40
2.5
  9
$DIMCEN
 40
0.09
  9
$DIMTSZ
 40
0.0
  9
$DIMTOL
 70
     0
  9
$DIMLIM
 70
     0
  9
$DIMTIH
 70
     0
  9
$DIMTOH
 70
     0
  9
$DIMSE1
 70
     0
  9
$DIMSE2
 70
     0
  9
$DIMTAD
 70
     1
  9
$DIMZIN
 70
     0
  9
$DIMBLK
  1

  9
$DIMASO
 70
     0
  9
$DIMSHO
 70
     0
  9
$DIMPOST
  1

  9
$DIMAPOST
  1

  9
$DIMALT
 70
     0
  9
$DIMALTD
 70
     2
  9
$DIMALTF
 40
25.4
  9
$DIMLFAC
 40
1.0
  9
$DIMTOFL
 70
     1
  9
$DIMTVP
 40
0.0
  9
$DIMTIX
 70
     0
  9
$DIMSOXD
 70
     0
  9
$DIMSAH
 70
     0
  9
$DIMBLK1
  1

  9
$DIMBLK2
  1

  9
$DIMSTYLE
  2
*UNNAMED
  9
$DIMCLRD
 70
     0
  9
$DIMCLRE
 70
     0
  9
$DIMCLRT
 70
     0
  9
$DIMTFAC
 40
1.0
  9
$DIMGAP
 40
0.09
  9
$LUNITS
 70
     2
  9
$LUPREC
 70
     4
  9
$SKETCHINC
 40
0.1
  9
$FILLETRAD
 40
5.0
  9
$AUNITS
 70
     0
  9
$AUPREC
 70
     0
  9
$MENU
  1
wiberger
  9
$ELEVATION
 40
0.0
  9
$PELEVATION
 40
0.0
  9
$THICKNESS
 40
0.0
  9
$LIMCHECK
 70
     0
  9
$BLIPMODE
 70
     1
  9
$CHAMFERA
 40
1.5
  9
$CHAMFERB
 40
1.5
  9
$SKPOLY
 70
     0
  9
$TDCREATE
 40
2450193.312073958
  9
$TDUPDATE
 40
2450213.628819907
  9
$TDINDWG
 40
0.0221699074
  9
$TDUSRTIMER
 40
0.0221699074
  9
$USRTIMER
 70
     1
  9
$ANGBASE
 50
0.0
  9
$ANGDIR
 70
     0
  9
$PDMODE
 70
     0
  9
$PDSIZE
 40
0.0
  9
$PLINEWID
 40
0.0
  9
$COORDS
 70
     0
  9
$SPLFRAME
 70
     0
  9
$SPLINETYPE
 70
     6
  9
$SPLINESEGS
 70
     8
  9
$ATTDIA
 70
     0
  9
$ATTREQ
 70
     1
  9
$HANDLING
 70
     0
  9
$HANDSEED
  5
0
  9
$SURFTAB1
 70
     6
  9
$SURFTAB2
 70
     6
  9
$SURFTYPE
 70
     6
  9
$SURFU
 70
     6
  9
$SURFV
 70
     6
  9
$UCSNAME
  2

  9
$UCSORG
 10
0.0
 20
0.0
 30
0.0
  9
$UCSXDIR
 10
1.0
 20
0.0
 30
0.0
  9
$UCSYDIR
 10
0.0
 20
1.0
 30
0.0
  9
$PUCSNAME
  2

  9
$PUCSORG
 10
0.0
 20
0.0
 30
0.0
  9
$PUCSXDIR
 10
1.0
 20
0.0
 30
0.0
  9
$PUCSYDIR
 10
0.0
 20
1.0
 30
0.0
  9
$USERI1
 70
     0
  9
$USERI2
 70
     0
  9
$USERI3
 70
     0
  9
$USERI4
 70
     0
  9
$USERI5
 70
     0
  9
$USERR1
 40
0.0
  9
$USERR2
 40
0.0
  9
$USERR3
 40
0.0
  9
$USERR4
 40
0.0
  9
$USERR5
 40
0.0
  9
$WORLDVIEW
 70
     1
  9
$SHADEDGE
 70
     3
  9
$SHADEDIF
 70
    70
  9
$TILEMODE
 70
     1
  9
$MAXACTVP
 70
    16
  9
$PINSBASE
 10
0.0
 20
0.0
 30
0.0
  9
$PLIMCHECK
 70
     0
  9
$PEXTMIN
 10
1.000000E+20
 20
1.000000E+20
 30
1.000000E+20
  9
$PEXTMAX
 10
-1.000000E+20
 20
-1.000000E+20
 30
-1.000000E+20
  9
$PLIMMIN
 10
0.0
 20
0.0
  9
$PLIMMAX
 10
12.0
 20
9.0
  9
$UNITMODE
 70
     0
  9
$VISRETAIN
 70
     0
  9
$PLINEGEN
 70
     0
  9
$PSLTSCALE
 70
     0
  9
$TREEDEPTH
 70
  3020
  9
$DWGCODEPAGE
  3
undefined
  0
ENDSEC
  0
SECTION
  2
TABLES
  0
TABLE
  2
VPORT
 70
     2
  0
VPORT
  2
*ACTIVE
 70
     0
 10
0.0
 20
0.0
 11
1.0
 21
1.0
 12
-175.247815
 22
252.423175
 13
0.0
 23
0.0
 14
1.0
 24
1.0
 15
0.0
 25
0.0
 16
0.0
 26
0.0
 36
1.0
 17
0.0
 27
0.0
 37
0.0
 40
259.841177
 41
1.767507
 42
50.0
 43
0.0
 44
0.0
 50
0.0
 51
0.0
 71
     0
 72
     0
 73
     1
 74
     0
 75
     0
 76
     0
 77
     0
 78
     0
  0
ENDTAB
  0
TABLE
  2
LTYPE
 70
     4
  0
LTYPE
  2
CONTINUOUS
 70
    64
  3
Solid line
 72
    65
 73
     0
 40
0.0
  0
LTYPE
  2
DASHED
 70
     0
  3
__ __ __ __ __ __ __ __ __ __ __ __ __ __ __
 72
    65
 73
     2
 40
0.75
 49
0.5
 49
-0.25
  0
LTYPE
  2
HIDDEN
 70
     0
  3
_ _ _ _ _ _ _ _ _ _ _ _ _ _ _ _ _ _ _ _ _ _ _
 72
    65
 73
     2
 40
0.375
 49
0.25
 49
-0.125
  0
LTYPE
  2
CENTER
 70
     0
  3
____ _ ____ _ ____ _ ____ _ ____ _ ____ _ ____
 72
    65
 73
     4
 40
2.0
 49
1.25
 49
-0.25
 49
0.25
 49
-0.25
  0
ENDTAB
  0
TABLE
  2
LAYER
 70
     1
  0
LAYER
  2
0
 70
    64
 62
     7
  6
CONTINUOUS
  0
ENDTAB
  0
TABLE
  2
STYLE
 70
     1
  0
STYLE
  2
STANDARD
 70
     0
 40
0.0
 41
1.0
 50
0.0
 71
     0
 42
10.647957
  3
txt
  4

  0
ENDTAB
  0
TABLE
  2
VIEW
 70
     0
  0
ENDTAB
  0
TABLE
  2
UCS
 70
     0
  0
ENDTAB
  0
TABLE
  2
APPID
 70
     1
  0
APPID
  2
ACAD
 70
    64
  0
ENDTAB
  0
TABLE
  2
DIMSTYLE
 70
     0
  0
ENDTAB
  0
ENDSEC
  0
SECTION
  2
BLOCKS
  0
ENDSEC
  0
SECTION
  2
ENTITIES
  0
CIRCLE
  8
0
 10
-377.858064
 20
310.762308
 30
0.0
 40
3.0
  0
CIRCLE
  8
0
 10
-377.858064
 20
310.762308
 30
0.0
 40
4.55
  0
CIRCLE
  8
0
 10
-377.858064
 20
310.762308
 30
0.0
 40
5.65
  0
CIRCLE
  8
0
 10
-377.858064
 20
310.762308
 30
0.0
 40
7.25
  0
CIRCLE
  8
0
 10
-377.858064
 20
310.762308
 30
0.0
 40
9.0
  0
CIRCLE
  8
0
 10
-377.858064
 20
310.762308
 30
0.0
 40
8.5
  0
CIRCLE
  8
0
 10
-343.403756
 20
310.762308
 30
0.0
 40
9.0
  0
CIRCLE
  8
0
 10
-343.403756
 20
310.762308
 30
0.0
 40
6.75
  0
CIRCLE
  8
0
 10
-343.403756
 20
310.762308
 30
0.0
 40
5.25
  0
CIRCLE
  8
0
 10
-343.403756
 20
310.762308
 30
0.0
 40
4.0
  0
CIRCLE
  8
0
 10
-343.403756
 20
310.762308
 30
0.0
 40
11.0
  0
CIRCLE
  8
0
 10
-343.403756
 20
310.762308
 30
0.0
 40
10.5
  0
CIRCLE
  8
0
 10
-305.034649
 20
310.762308
 30
0.0
 40
10.25
  0
CIRCLE
  8
0
 10
-305.034649
 20
310.762308
 30
0.0
 40
8.5
  0
CIRCLE
  8
0
 10
-305.034649
 20
310.762308
 30
0.0
 40
6.422616
  0
CIRCLE
  8
0
 10
-305.034649
 20
310.762308
 30
0.0
 40
5.0
  0
CIRCLE
  8
0
 10
-305.034649
 20
310.762308
 30
0.0
 40
13.0
  0
CIRCLE
  8
0
 10
-305.034649
 20
310.762308
 30
0.0
 40
12.5
  0
CIRCLE
  8
0
 10
-261.352894
 20
310.762308
 30
0.0
 40
6.0
  0
CIRCLE
  8
0
 10
-261.352894
 20
310.762308
 30
0.0
 40
7.694803
  0
CIRCLE
  8
0
 10
-261.352894
 20
310.762308
 30
0.0
 40
9.5
  0
CIRCLE
  8
0
 10
-261.352894
 20
310.762308
 30
0.0
 40
12.0
  0
CIRCLE
  8
0
 10
-261.352894
 20
310.762308
 30
0.0
 40
15.0
  0
CIRCLE
  8
0
 10
-261.352894
 20
310.762308
 30
0.0
 40
14.4
  0
CIRCLE
  8
0
 10
-211.289437
 20
310.762308
 30
0.0
 40
13.7
  0
CIRCLE
  8
0
 10
-211.289437
 20
310.762308
 30
0.0
 40
11.3
  0
CIRCLE
  8
0
 10
-211.289437
 20
310.762308
 30
0.0
 40
7.0
  0
CIRCLE
  8
0
 10
-211.289437
 20
310.762308
 30
0.0
 40
8.428523
  0
CIRCLE
  8
0
 10
-211.289437
 20
310.762308
 30
0.0
 40
16.2
  0
CIRCLE
  8
0
 10
-211.289437
 20
310.762308
 30
0.0
 40
17.0
  0
CIRCLE
  8
0
 10
-156.612436
 20
310.762308
 30
0.0
 40
15.5
  0
CIRCLE
  8
0
 10
-156.612436
 20
310.762308
 30
0.0
 40
12.175385
  0
CIRCLE
  8
0
 10
-156.612436
 20
310.762308
 30
0.0
 40
9.707729
  0
CIRCLE
  8
0
 10
-156.612436
 20
310.762308
 30
0.0
 40
8.0
  0
CIRCLE
  8
0
 10
-156.612436
 20
310.762308
 30
0.0
 40
19.0
  0
CIRCLE
  8
0
 10
-156.612436
 20
310.762308
 30
0.0
 40
18.2
  0
CIRCLE
  8
0
 10
-97.317815
 20
310.762308
 30
0.0
 40
17.0
  0
CIRCLE
  8
0
 10
-97.317815
 20
310.762308
 30
0.0
 40
10.943748
  0
CIRCLE
  8
0
 10
-97.317815
 20
310.762308
 30
0.0
 40
13.562932
  0
CIRCLE
  8
0
 10
-97.317815
 20
310.762308
 30
0.0
 40
9.0
  0
CIRCLE
  8
0
 10
-97.317815
 20
310.762308
 30
0.0
 40
21.0
  0
CIRCLE
  8
0
 10
-97.317815
 20
310.762308
 30
0.0
 40
20.2
  0
CIRCLE
  8
0
 10
-363.858064
 20
168.494645
 30
0.0
 40
18.5
  0
CIRCLE
  8
0
 10
-363.858064
 20
168.494645
 30
0.0
 40
12.247449
  0
CIRCLE
  8
0
 10
-363.858064
 20
168.494645
 30
0.0
 40
15.008331
  0
CIRCLE
  8
0
 10
-363.858064
 20
168.494645
 30
0.0
 40
10.0
  0
CIRCLE
  8
0
 10
-363.858064
 20
168.494645
 30
0.0
 40
23.0
  0
CIRCLE
  8
0
 10
-363.858064
 20
168.494645
 30
0.0
 40
22.0
  0
CIRCLE
  8
0
 10
-290.471193
 20
168.494645
 30
0.0
 40
20.0
  0
CIRCLE
  8
0
 10
-290.471193
 20
168.494645
 30
0.0
 40
16.155494
  0
CIRCLE
  8
0
 10
-290.471193
 20
168.494645
 30
0.0
 40
12.845233
  0
CIRCLE
  8
0
 10
-290.471193
 20
168.494645
 30
0.0
 40
11.0
  0
CIRCLE
  8
0
 10
-290.471193
 20
168.494645
 30
0.0
 40
25.0
  0
CIRCLE
  8
0
 10
-290.471193
 20
168.494645
 30
0.0
 40
24.0
  0
CIRCLE
  8
0
 10
-209.277211
 20
168.494645
 30
0.0
 40
22.5
  0
CIRCLE
  8
0
 10
-209.277211
 20
168.494645
 30
0.0
 40
18.35647
  0
CIRCLE
  8
0
 10
-209.277211
 20
168.494645
 30
0.0
 40
14.754999
  0
CIRCLE
  8
0
 10
-209.277211
 20
168.494645
 30
0.0
 40
12.5
  0
CIRCLE
  8
0
 10
-209.277211
 20
168.494645
 30
0.0
 40
28.0
  0
CIRCLE
  8
0
 10
-209.277211
 20
168.494645
 30
0.0
 40
26.8
  0
CIRCLE
  8
0
 10
-114.030418
 20
168.494645
 30
0.0
 40
26.5
  0
CIRCLE
  8
0
 10
-114.030418
 20
168.494645
 30
0.0
 40
22.226111
  0
CIRCLE
  8
0
 10
-114.030418
 20
168.494645
 30
0.0
 40
17.549929
  0
CIRCLE
  8
0
 10
-114.030418
 20
168.494645
 30
0.0
 40
15.0
  0
CIRCLE
  8
0
 10
-114.030418
 20
168.494645
 30
0.0
 40
33.0
  0
CIRCLE
  8
0
 10
-114.030418
 20
168.494645
 30
0.0
 40
31.5
  0
LINE
  8
0
 10
-76.317815
 20
358.565246
 30
0.0
 11
-76.317815
 21
365.215246
 31
0.0
  0
LINE
  8
0
 10
-118.317815
 20
358.565246
 30
0.0
 11
-118.317815
 21
365.215246
 31
0.0
  0
LINE
  8
0
 10
-76.917815
 20
356.965246
 30
0.0
 11
-76.917815
 21
358.565246
 31
0.0
  0
LINE
  8
0
 10
-117.717815
 20
356.965246
 30
0.0
 11
-117.717815
 21
358.565246
 31
0.0
  0
LINE
  8
0
 10
-118.317815
 20
356.965246
 30
0.0
 11
-76.317815
 21
356.965246
 31
0.0
  0
LINE
  8
0
 10
-118.317815
 20
358.565246
 30
0.0
 11
-76.317815
 21
358.565246
 31
0.0
  0
LINE
  8
0
 10
-118.317815
 20
350.315246
 30
0.0
 11
-76.317815
 21
350.315246
 31
0.0
  0
LINE
  8
0
 10
-118.317815
 20
365.215246
 30
0.0
 11
-76.317815
 21
365.215246
 31
0.0
  0
LINE
  8
0
 10
-77.117815
 20
366.015246
 30
0.0
 11
-76.317815
 21
365.215246
 31
0.0
  0
LINE
  8
0
 10
-77.117815
 20
349.515246
 30
0.0
 11
-76.317815
 21
350.315246
 31
0.0
  0
LINE
  8
0
 10
-118.317815
 20
350.315246
 30
0.0
 11
-117.517815
 21
349.515246
 31
0.0
  0
LINE
  8
0
 10
-118.317815
 20
365.215246
 30
0.0
 11
-117.517815
 21
366.015246
 31
0.0
  0
LINE
  8
0
 10
-76.317815
 20
350.315246
 30
0.0
 11
-76.317815
 21
356.965246
 31
0.0
  0
LINE
  8
0
 10
-118.317815
 20
350.315246
 30
0.0
 11
-118.317815
 21
356.965246
 31
0.0
  0
LINE
  8
0
 10
-117.517815
 20
349.515246
 30
0.0
 11
-77.117815
 21
349.515246
 31
0.0
  0
LINE
  8
0
 10
-117.517815
 20
366.015246
 30
0.0
 11
-77.117815
 21
366.015246
 31
0.0
  0
LINE
  8
0
 10
-181.277211
 20
230.709381
 30
0.0
 11
-181.277211
 21
239.309381
 31
0.0
  0
LINE
  8
0
 10
-237.277211
 20
230.709381
 30
0.0
 11
-237.277211
 21
239.309381
 31
0.0
  0
LINE
  8
0
 10
-182.277211
 20
228.309381
 30
0.0
 11
-182.277211
 21
230.709381
 31
0.0
  0
LINE
  8
0
 10
-236.277211
 20
228.309381
 30
0.0
 11
-236.277211
 21
230.709381
 31
0.0
  0
LINE
  8
0
 10
-237.277211
 20
228.309381
 30
0.0
 11
-181.277211
 21
228.309381
 31
0.0
  0
LINE
  8
0
 10
-237.277211
 20
230.709381
 30
0.0
 11
-181.277211
 21
230.709381
 31
0.0
  0
LINE
  8
0
 10
-237.277211
 20
219.709381
 30
0.0
 11
-181.277211
 21
219.709381
 31
0.0
  0
LINE
  8
0
 10
-237.277211
 20
239.309381
 30
0.0
 11
-181.277211
 21
239.309381
 31
0.0
  0
LINE
  8
0
 10
-182.477211
 20
240.509381
 30
0.0
 11
-181.277211
 21
239.309381
 31
0.0
  0
LINE
  8
0
 10
-182.477211
 20
218.509381
 30
0.0
 11
-181.277211
 21
219.709381
 31
0.0
  0
LINE
  8
0
 10
-237.277211
 20
219.709381
 30
0.0
 11
-236.077211
 21
218.509381
 31
0.0
  0
LINE
  8
0
 10
-237.277211
 20
239.309381
 30
0.0
 11
-236.077211
 21
240.509381
 31
0.0
  0
LINE
  8
0
 10
-181.277211
 20
219.709381
 30
0.0
 11
-181.277211
 21
228.309381
 31
0.0
  0
LINE
  8
0
 10
-237.277211
 20
219.709381
 30
0.0
 11
-237.277211
 21
228.309381
 31
0.0
  0
LINE
  8
0
 10
-236.077211
 20
240.509381
 30
0.0
 11
-182.477211
 21
240.509381
 31
0.0
  0
LINE
  8
0
 10
-236.077211
 20
218.509381
 30
0.0
 11
-182.477211
 21
218.509381
 31
0.0
  0
LINE
  8
0
 10
-265.471193
 20
224.461015
 30
0.0
 11
-265.471193
 21
232.461015
 31
0.0
  0
LINE
  8
0
 10
-315.471193
 20
224.461015
 30
0.0
 11
-315.471193
 21
232.461015
 31
0.0
  0
LINE
  8
0
 10
-266.271193
 20
222.461015
 30
0.0
 11
-266.271193
 21
224.461015
 31
0.0
  0
LINE
  8
0
 10
-314.671193
 20
222.461015
 30
0.0
 11
-314.671193
 21
224.461015
 31
0.0
  0
LINE
  8
0
 10
-315.471193
 20
222.461015
 30
0.0
 11
-265.471193
 21
222.461015
 31
0.0
  0
LINE
  8
0
 10
-315.471193
 20
224.461015
 30
0.0
 11
-265.471193
 21
224.461015
 31
0.0
  0
LINE
  8
0
 10
-315.471193
 20
214.461015
 30
0.0
 11
-265.471193
 21
214.461015
 31
0.0
  0
LINE
  8
0
 10
-315.471193
 20
232.461015
 30
0.0
 11
-265.471193
 21
232.461015
 31
0.0
  0
LINE
  8
0
 10
-265.471193
 20
214.461015
 30
0.0
 11
-266.471193
 21
213.461015
 31
0.0
  0
LINE
  8
0
 10
-266.471193
 20
233.461015
 30
0.0
 11
-265.471193
 21
232.461015
 31
0.0
  0
LINE
  8
0
 10
-315.471193
 20
214.461015
 30
0.0
 11
-314.471193
 21
213.461015
 31
0.0
  0
LINE
  8
0
 10
-315.471193
 20
232.461015
 30
0.0
 11
-314.471193
 21
233.461015
 31
0.0
  0
LINE
  8
0
 10
-265.471193
 20
214.461015
 30
0.0
 11
-265.471193
 21
222.461015
 31
0.0
  0
LINE
  8
0
 10
-315.471193
 20
214.461015
 30
0.0
 11
-315.471193
 21
222.461015
 31
0.0
  0
LINE
  8
0
 10
-314.471193
 20
233.461015
 30
0.0
 11
-266.471193
 21
233.461015
 31
0.0
  0
LINE
  8
0
 10
-314.471193
 20
213.461015
 30
0.0
 11
-266.471193
 21
213.461015
 31
0.0
  0
LINE
  8
0
 10
-292.034649
 20
340.014374
 30
0.0
 11
-292.034649
 21
344.164374
 31
0.0
  0
LINE
  8
0
 10
-318.034649
 20
340.014374
 30
0.0
 11
-318.034649
 21
344.164374
 31
0.0
  0
LINE
  8
0
 10
-292.434649
 20
338.814374
 30
0.0
 11
-292.434649
 21
340.014374
 31
0.0
  0
LINE
  8
0
 10
-317.634649
 20
338.814374
 30
0.0
 11
-317.634649
 21
340.014374
 31
0.0
  0
LINE
  8
0
 10
-318.034649
 20
338.814374
 30
0.0
 11
-292.034649
 21
338.814374
 31
0.0
  0
LINE
  8
0
 10
-318.034649
 20
340.014374
 30
0.0
 11
-292.034649
 21
340.014374
 31
0.0
  0
LINE
  8
0
 10
-318.034649
 20
334.664374
 30
0.0
 11
-292.034649
 21
334.664374
 31
0.0
  0
LINE
  8
0
 10
-318.034649
 20
344.164374
 30
0.0
 11
-292.034649
 21
344.164374
 31
0.0
  0
LINE
  8
0
 10
-292.534649
 20
334.164374
 30
0.0
 11
-292.034649
 21
334.664374
 31
0.0
  0
LINE
  8
0
 10
-292.534649
 20
344.664374
 30
0.0
 11
-292.034649
 21
344.164374
 31
0.0
  0
LINE
  8
0
 10
-318.034649
 20
334.664374
 30
0.0
 11
-317.534649
 21
334.164374
 31
0.0
  0
LINE
  8
0
 10
-318.034649
 20
344.164374
 30
0.0
 11
-317.534649
 21
344.664374
 31
0.0
  0
LINE
  8
0
 10
-292.034649
 20
334.664374
 30
0.0
 11
-292.034649
 21
338.814374
 31
0.0
  0
LINE
  8
0
 10
-318.034649
 20
334.664374
 30
0.0
 11
-318.034649
 21
338.814374
 31
0.0
  0
LINE
  8
0
 10
-317.534649
 20
334.164374
 30
0.0
 11
-292.534649
 21
334.164374
 31
0.0
  0
LINE
  8
0
 10
-317.534649
 20
344.664374
 30
0.0
 11
-292.534649
 21
344.664374
 31
0.0
  0
ARC
  8
0
 10
-305.034649
 20
339.414374
 30
0.0
 40
9.5
 50
132.536898
 51
146.452262
  0
ARC
  8
0
 10
-305.034649
 20
339.414374
 30
0.0
 40
9.5
 50
312.536898
 51
326.452262
  0
ARC
  8
0
 10
-305.034649
 20
339.414374
 30
0.0
 40
9.5
 50
213.547738
 51
227.463102
  0
ARC
  8
0
 10
-305.034649
 20
339.414374
 30
0.0
 40
9.5
 50
33.547738
 51
47.463102
  0
LINE
  8
0
 10
-311.457265
 20
346.414374
 30
0.0
 11
-298.612033
 21
346.414374
 31
0.0
  0
LINE
  8
0
 10
-311.457265
 20
332.414374
 30
0.0
 11
-298.612033
 21
332.414374
 31
0.0
  0
LINE
  8
0
 10
-340.858064
 20
216.429898
 30
0.0
 11
-340.858064
 21
223.429898
 31
0.0
  0
LINE
  8
0
 10
-386.858064
 20
216.429898
 30
0.0
 11
-386.858064
 21
223.429898
 31
0.0
  0
LINE
  8
0
 10
-341.658064
 20
214.429898
 30
0.0
 11
-341.658064
 21
216.429898
 31
0.0
  0
LINE
  8
0
 10
-386.058064
 20
214.429898
 30
0.0
 11
-386.058064
 21
216.429898
 31
0.0
  0
LINE
  8
0
 10
-386.858064
 20
214.429898
 30
0.0
 11
-340.858064
 21
214.429898
 31
0.0
  0
LINE
  8
0
 10
-386.858064
 20
216.429898
 30
0.0
 11
-340.858064
 21
216.429898
 31
0.0
  0
LINE
  8
0
 10
-386.858064
 20
207.429898
 30
0.0
 11
-340.858064
 21
207.429898
 31
0.0
  0
LINE
  8
0
 10
-386.858064
 20
223.429898
 30
0.0
 11
-340.858064
 21
223.429898
 31
0.0
  0
LINE
  8
0
 10
-341.858064
 20
224.429898
 30
0.0
 11
-340.858064
 21
223.429898
 31
0.0
  0
LINE
  8
0
 10
-341.858064
 20
206.429898
 30
0.0
 11
-340.858064
 21
207.429898
 31
0.0
  0
LINE
  8
0
 10
-386.858064
 20
207.429898
 30
0.0
 11
-385.858064
 21
206.429898
 31
0.0
  0
LINE
  8
0
 10
-386.858064
 20
223.429898
 30
0.0
 11
-385.858064
 21
224.429898
 31
0.0
  0
LINE
  8
0
 10
-340.858064
 20
207.429898
 30
0.0
 11
-340.858064
 21
214.429898
 31
0.0
  0
LINE
  8
0
 10
-386.858064
 20
207.429898
 30
0.0
 11
-386.858064
 21
214.429898
 31
0.0
  0
LINE
  8
0
 10
-385.858064
 20
224.429898
 30
0.0
 11
-341.858064
 21
224.429898
 31
0.0
  0
LINE
  8
0
 10
-385.858064
 20
206.429898
 30
0.0
 11
-341.858064
 21
206.429898
 31
0.0
  0
ARC
  8
0
 10
-363.858064
 20
215.429898
 30
0.0
 40
17.5
 50
210.949723
 51
225.584691
  0
ARC
  8
0
 10
-363.858064
 20
215.429898
 30
0.0
 40
17.5
 50
30.949723
 51
45.584691
  0
ARC
  8
0
 10
-363.858064
 20
215.429898
 30
0.0
 40
17.5
 50
314.415309
 51
329.050277
  0
LINE
  8
0
 10
-376.105512
 20
227.929898
 30
0.0
 11
-351.610615
 21
227.929898
 31
0.0
  0
LINE
  8
0
 10
-376.105512
 20
202.929898
 30
0.0
 11
-351.610615
 21
202.929898
 31
0.0
  0
ARC
  8
0
 10
-363.858064
 20
215.429898
 30
0.0
 40
17.5
 50
134.415309
 51
149.050277
  0
LINE
  8
0
 10
-386.858064
 20
329.306514
 30
0.0
 11
-368.858064
 21
329.306514
 31
0.0
  0
LINE
  8
0
 10
-386.858064
 20
335.056514
 30
0.0
 11
-368.858064
 21
335.056514
 31
0.0
  0
LINE
  8
0
 10
-369.158064
 20
331.681514
 30
0.0
 11
-369.158064
 21
332.681514
 31
0.0
  0
LINE
  8
0
 10
-386.558064
 20
331.681514
 30
0.0
 11
-386.558064
 21
332.681514
 31
0.0
  0
LINE
  8
0
 10
-368.858064
 20
332.681514
 30
0.0
 11
-368.858064
 21
335.056514
 31
0.0
  0
LINE
  8
0
 10
-386.858064
 20
332.681514
 30
0.0
 11
-386.858064
 21
335.056514
 31
0.0
  0
LINE
  8
0
 10
-386.858064
 20
331.681514
 30
0.0
 11
-368.858064
 21
331.681514
 31
0.0
  0
LINE
  8
0
 10
-386.858064
 20
332.681514
 30
0.0
 11
-368.858064
 21
332.681514
 31
0.0
  0
LINE
  8
0
 10
-369.358064
 20
328.806514
 30
0.0
 11
-368.858064
 21
329.306514
 31
0.0
  0
LINE
  8
0
 10
-369.358064
 20
335.556514
 30
0.0
 11
-368.858064
 21
335.056514
 31
0.0
  0
LINE
  8
0
 10
-386.858064
 20
329.306514
 30
0.0
 11
-386.358064
 21
328.806514
 31
0.0
  0
LINE
  8
0
 10
-386.858064
 20
335.056514
 30
0.0
 11
-386.358064
 21
335.556514
 31
0.0
  0
LINE
  8
0
 10
-386.358064
 20
328.806514
 30
0.0
 11
-369.358064
 21
328.806514
 31
0.0
  0
LINE
  8
0
 10
-386.358064
 20
335.556514
 30
0.0
 11
-369.358064
 21
335.556514
 31
0.0
  0
LINE
  8
0
 10
-368.858064
 20
329.306514
 30
0.0
 11
-368.858064
 21
331.681514
 31
0.0
  0
LINE
  8
0
 10
-386.858064
 20
329.306514
 30
0.0
 11
-386.858064
 21
331.681514
 31
0.0
  0
ARC
  8
0
 10
-377.858064
 20
332.181514
 30
0.0
 40
6.35
 50
134.873891
 51
147.893406
  0
LINE
  8
0
 10
-382.338298
 20
336.681514
 30
0.0
 11
-373.377829
 21
336.681514
 31
0.0
  0
LINE
  8
0
 10
-382.338298
 20
327.681514
 30
0.0
 11
-373.377829
 21
327.681514
 31
0.0
  0
ARC
  8
0
 10
-377.858064
 20
332.181514
 30
0.0
 40
6.35
 50
314.873891
 51
327.893406
  0
ARC
  8
0
 10
-377.858064
 20
332.181514
 30
0.0
 40
6.35
 50
32.106594
 51
45.126109
  0
ARC
  8
0
 10
-377.858064
 20
332.181514
 30
0.0
 40
6.35
 50
212.106594
 51
225.126109
  0
LINE
  8
0
 10
-332.403756
 20
336.639004
 30
0.0
 11
-332.403756
 21
340.139004
 31
0.0
  0
LINE
  8
0
 10
-354.403756
 20
336.639004
 30
0.0
 11
-354.403756
 21
340.139004
 31
0.0
  0
LINE
  8
0
 10
-332.803756
 20
335.639004
 30
0.0
 11
-332.803756
 21
336.639004
 31
0.0
  0
LINE
  8
0
 10
-354.003756
 20
335.639004
 30
0.0
 11
-354.003756
 21
336.639004
 31
0.0
  0
LINE
  8
0
 10
-354.403756
 20
335.639004
 30
0.0
 11
-332.403756
 21
335.639004
 31
0.0
  0
LINE
  8
0
 10
-354.403756
 20
336.639004
 30
0.0
 11
-332.403756
 21
336.639004
 31
0.0
  0
LINE
  8
0
 10
-354.403756
 20
332.139004
 30
0.0
 11
-332.403756
 21
332.139004
 31
0.0
  0
LINE
  8
0
 10
-354.403756
 20
340.139004
 30
0.0
 11
-332.403756
 21
340.139004
 31
0.0
  0
LINE
  8
0
 10
-332.903756
 20
340.639004
 30
0.0
 11
-332.403756
 21
340.139004
 31
0.0
  0
LINE
  8
0
 10
-332.903756
 20
331.639004
 30
0.0
 11
-332.403756
 21
332.139004
 31
0.0
  0
LINE
  8
0
 10
-354.403756
 20
332.139004
 30
0.0
 11
-353.903756
 21
331.639004
 31
0.0
  0
LINE
  8
0
 10
-354.403756
 20
340.139004
 30
0.0
 11
-353.903756
 21
340.639004
 31
0.0
  0
LINE
  8
0
 10
-332.403756
 20
332.139004
 30
0.0
 11
-332.403756
 21
335.639004
 31
0.0
  0
LINE
  8
0
 10
-354.403756
 20
332.139004
 30
0.0
 11
-354.403756
 21
335.639004
 31
0.0
  0
LINE
  8
0
 10
-353.903756
 20
340.639004
 30
0.0
 11
-332.903756
 21
340.639004
 31
0.0
  0
LINE
  8
0
 10
-353.903756
 20
331.639004
 30
0.0
 11
-332.903756
 21
331.639004
 31
0.0
  0
ARC
  8
0
 10
-343.403756
 20
336.139004
 30
0.0
 40
7.925
 50
214.59858
 51
229.209009
  0
ARC
  8
0
 10
-343.403756
 20
336.139004
 30
0.0
 40
7.925
 50
34.59858
 51
49.209009
  0
ARC
  8
0
 10
-343.403756
 20
336.139004
 30
0.0
 40
7.925
 50
130.790991
 51
145.40142
  0
LINE
  8
0
 10
-348.581171
 20
330.139004
 30
0.0
 11
-338.226342
 21
330.139004
 31
0.0
  0
LINE
  8
0
 10
-348.581171
 20
342.139004
 30
0.0
 11
-338.226342
 21
342.139004
 31
0.0
  0
ARC
  8
0
 10
-343.403756
 20
336.139004
 30
0.0
 40
7.925
 50
310.790991
 51
325.40142
  0
ARC
  8
0
 10
-290.471193
 20
223.461015
 30
0.0
 40
19.0
 50
31.756864
 51
47.463102
  0
ARC
  8
0
 10
-290.471193
 20
223.461015
 30
0.0
 40
19.0
 50
211.756864
 51
227.463102
  0
ARC
  8
0
 10
-290.471193
 20
223.461015
 30
0.0
 40
19.0
 50
132.536898
 51
148.243136
  0
LINE
  8
0
 10
-303.316426
 20
209.461015
 30
0.0
 11
-277.62596
 21
209.461015
 31
0.0
  0
LINE
  8
0
 10
-303.316426
 20
237.461015
 30
0.0
 11
-277.62596
 21
237.461015
 31
0.0
  0
ARC
  8
0
 10
-290.471193
 20
223.461015
 30
0.0
 40
19.0
 50
312.536898
 51
328.243136
  0
ARC
  8
0
 10
-209.277211
 20
229.509381
 30
0.0
 40
21.4
 50
30.931885
 51
46.41057
  0
ARC
  8
0
 10
-209.277211
 20
229.509381
 30
0.0
 40
21.4
 50
210.931885
 51
226.41057
  0
ARC
  8
0
 10
-209.277211
 20
229.509381
 30
0.0
 40
21.4
 50
133.58943
 51
149.068115
  0
ARC
  8
0
 10
-209.277211
 20
229.509381
 30
0.0
 40
21.4
 50
313.58943
 51
329.068115
  0
LINE
  8
0
 10
-224.03221
 20
245.009381
 30
0.0
 11
-194.522212
 21
245.009381
 31
0.0
  0
LINE
  8
0
 10
-224.03221
 20
214.009381
 30
0.0
 11
-194.522212
 21
214.009381
 31
0.0
  0
LINE
  8
0
 10
-246.352894
 20
345.371761
 30
0.0
 11
-246.352894
 21
350.171761
 31
0.0
  0
LINE
  8
0
 10
-276.352894
 20
345.371761
 30
0.0
 11
-276.352894
 21
350.171761
 31
0.0
  0
LINE
  8
0
 10
-246.852894
 20
344.171761
 30
0.0
 11
-246.852894
 21
345.371761
 31
0.0
  0
LINE
  8
0
 10
-275.852894
 20
344.171761
 30
0.0
 11
-275.852894
 21
345.371761
 31
0.0
  0
LINE
  8
0
 10
-276.352894
 20
344.171761
 30
0.0
 11
-246.352894
 21
344.171761
 31
0.0
  0
LINE
  8
0
 10
-276.352894
 20
345.371761
 30
0.0
 11
-246.352894
 21
345.371761
 31
0.0
  0
LINE
  8
0
 10
-276.352894
 20
339.371761
 30
0.0
 11
-246.352894
 21
339.371761
 31
0.0
  0
LINE
  8
0
 10
-276.352894
 20
350.171761
 30
0.0
 11
-246.352894
 21
350.171761
 31
0.0
  0
LINE
  8
0
 10
-246.352894
 20
339.371761
 30
0.0
 11
-246.952894
 21
338.771761
 31
0.0
  0
LINE
  8
0
 10
-246.952894
 20
350.771761
 30
0.0
 11
-246.352894
 21
350.171761
 31
0.0
  0
LINE
  8
0
 10
-276.352894
 20
339.371761
 30
0.0
 11
-275.752894
 21
338.771761
 31
0.0
  0
LINE
  8
0
 10
-276.352894
 20
350.171761
 30
0.0
 11
-275.752894
 21
350.771761
 31
0.0
  0
LINE
  8
0
 10
-246.352894
 20
339.371761
 30
0.0
 11
-246.352894
 21
344.171761
 31
0.0
  0
LINE
  8
0
 10
-276.352894
 20
339.371761
 30
0.0
 11
-276.352894
 21
344.171761
 31
0.0
  0
LINE
  8
0
 10
-275.752894
 20
350.771761
 30
0.0
 11
-246.952894
 21
350.771761
 31
0.0
  0
LINE
  8
0
 10
-275.752894
 20
338.771761
 30
0.0
 11
-246.952894
 21
338.771761
 31
0.0
  0
ARC
  8
0
 10
-261.352894
 20
344.771761
 30
0.0
 40
11.1
 50
32.720443
 51
46.114017
  0
ARC
  8
0
 10
-261.352894
 20
344.771761
 30
0.0
 40
11.1
 50
212.720443
 51
226.114017
  0
ARC
  8
0
 10
-261.352894
 20
344.771761
 30
0.0
 40
11.1
 50
313.885983
 51
327.279557
  0
LINE
  8
0
 10
-269.047697
 20
336.771761
 30
0.0
 11
-253.65809
 21
336.771761
 31
0.0
  0
ARC
  8
0
 10
-261.352894
 20
344.771761
 30
0.0
 40
11.1
 50
133.885983
 51
147.279557
  0
LINE
  8
0
 10
-269.047697
 20
352.771761
 30
0.0
 11
-253.65809
 21
352.771761
 31
0.0
  0
LINE
  8
0
 10
-194.289437
 20
352.661138
 30
0.0
 11
-194.289437
 21
357.911138
 31
0.0
  0
LINE
  8
0
 10
-228.289437
 20
352.661138
 30
0.0
 11
-228.289437
 21
357.911138
 31
0.0
  0
LINE
  8
0
 10
-194.889437
 20
351.261138
 30
0.0
 11
-194.889437
 21
352.661138
 31
0.0
  0
LINE
  8
0
 10
-227.689437
 20
351.261138
 30
0.0
 11
-227.689437
 21
352.661138
 31
0.0
  0
LINE
  8
0
 10
-228.289437
 20
351.261138
 30
0.0
 11
-194.289437
 21
351.261138
 31
0.0
  0
LINE
  8
0
 10
-228.289437
 20
352.661138
 30
0.0
 11
-194.289437
 21
352.661138
 31
0.0
  0
LINE
  8
0
 10
-228.289437
 20
346.011138
 30
0.0
 11
-194.289437
 21
346.011138
 31
0.0
  0
LINE
  8
0
 10
-228.289437
 20
357.911138
 30
0.0
 11
-194.289437
 21
357.911138
 31
0.0
  0
LINE
  8
0
 10
-195.089437
 20
358.711138
 30
0.0
 11
-194.289437
 21
357.911138
 31
0.0
  0
LINE
  8
0
 10
-195.089437
 20
345.211138
 30
0.0
 11
-194.289437
 21
346.011138
 31
0.0
  0
LINE
  8
0
 10
-228.289437
 20
346.011138
 30
0.0
 11
-227.489437
 21
345.211138
 31
0.0
  0
LINE
  8
0
 10
-228.289437
 20
357.911138
 30
0.0
 11
-227.489437
 21
358.711138
 31
0.0
  0
LINE
  8
0
 10
-194.289437
 20
346.011138
 30
0.0
 11
-194.289437
 21
351.261138
 31
0.0
  0
LINE
  8
0
 10
-228.289437
 20
346.011138
 30
0.0
 11
-228.289437
 21
351.261138
 31
0.0
  0
LINE
  8
0
 10
-227.489437
 20
345.211138
 30
0.0
 11
-195.089437
 21
345.211138
 31
0.0
  0
LINE
  8
0
 10
-227.489437
 20
358.711138
 30
0.0
 11
-195.089437
 21
358.711138
 31
0.0
  0
ARC
  8
0
 10
-211.289437
 20
351.961138
 30
0.0
 40
7.0
 50
74.641114
 51
105.358886
  0
ARC
  8
0
 10
-211.289437
 20
351.961138
 30
0.0
 40
7.0
 50
254.641114
 51
285.358886
  0
ARC
  8
0
 10
-211.289437
 20
351.961138
 30
0.0
 40
12.7
 50
212.106594
 51
228.420147
  0
ARC
  8
0
 10
-211.289437
 20
351.961138
 30
0.0
 40
12.7
 50
32.106594
 51
48.420147
  0
LINE
  8
0
 10
-219.71796
 20
342.461138
 30
0.0
 11
-202.860914
 21
342.461138
 31
0.0
  0
ARC
  8
0
 10
-211.289437
 20
351.961138
 30
0.0
 40
12.7
 50
311.579853
 51
327.893406
  0
ARC
  8
0
 10
-211.289437
 20
351.961138
 30
0.0
 40
12.7
 50
131.579853
 51
147.893406
  0
LINE
  8
0
 10
-219.71796
 20
361.461138
 30
0.0
 11
-202.860914
 21
361.461138
 31
0.0
  0
LINE
  8
0
 10
-81.030418
 20
239.104937
 30
0.0
 11
-81.030418
 21
248.604937
 31
0.0
  0
LINE
  8
0
 10
-147.030418
 20
239.104937
 30
0.0
 11
-147.030418
 21
248.604937
 31
0.0
  0
LINE
  8
0
 10
-82.230418
 20
236.104937
 30
0.0
 11
-82.230418
 21
239.104937
 31
0.0
  0
LINE
  8
0
 10
-145.830418
 20
236.104937
 30
0.0
 11
-145.830418
 21
239.104937
 31
0.0
  0
LINE
  8
0
 10
-147.030418
 20
236.104937
 30
0.0
 11
-81.030418
 21
236.104937
 31
0.0
  0
LINE
  8
0
 10
-147.030418
 20
239.104937
 30
0.0
 11
-81.030418
 21
239.104937
 31
0.0
  0
LINE
  8
0
 10
-147.030418
 20
226.604937
 30
0.0
 11
-81.030418
 21
226.604937
 31
0.0
  0
LINE
  8
0
 10
-147.030418
 20
248.604937
 30
0.0
 11
-81.030418
 21
248.604937
 31
0.0
  0
LINE
  8
0
 10
-82.530418
 20
250.104937
 30
0.0
 11
-81.030418
 21
248.604937
 31
0.0
  0
LINE
  8
0
 10
-82.530418
 20
225.104937
 30
0.0
 11
-81.030418
 21
226.604937
 31
0.0
  0
LINE
  8
0
 10
-147.030418
 20
226.604937
 30
0.0
 11
-145.530418
 21
225.104937
 31
0.0
  0
LINE
  8
0
 10
-147.030418
 20
248.604937
 30
0.0
 11
-145.530418
 21
250.104937
 31
0.0
  0
LINE
  8
0
 10
-81.030418
 20
226.604937
 30
0.0
 11
-81.030418
 21
236.104937
 31
0.0
  0
LINE
  8
0
 10
-147.030418
 20
226.604937
 30
0.0
 11
-147.030418
 21
236.104937
 31
0.0
  0
LINE
  8
0
 10
-145.530418
 20
250.104937
 30
0.0
 11
-82.530418
 21
250.104937
 31
0.0
  0
LINE
  8
0
 10
-145.530418
 20
225.104937
 30
0.0
 11
-82.530418
 21
225.104937
 31
0.0
  0
ARC
  8
0
 10
-114.030418
 20
237.604937
 30
0.0
 40
25.5
 50
29.35347
 51
46.509642
  0
ARC
  8
0
 10
-114.030418
 20
237.604937
 30
0.0
 40
25.5
 50
209.35347
 51
226.509642
  0
ARC
  8
0
 10
-114.030418
 20
237.604937
 30
0.0
 40
25.5
 50
133.490358
 51
150.64653
  0
ARC
  8
0
 10
-114.030418
 20
237.604937
 30
0.0
 40
25.5
 50
313.490358
 51
330.64653
  0
LINE
  8
0
 10
-131.580347
 20
256.104937
 30
0.0
 11
-96.48049
 21
256.104937
 31
0.0
  0
LINE
  8
0
 10
-131.580347
 20
219.104937
 30
0.0
 11
-96.48049
 21
219.104937
 31
0.0
  0
LINE
  8
0
 10
-137.612436
 20
356.473514
 30
0.0
 11
-137.612436
 21
362.373514
 31
0.0
  0
LINE
  8
0
 10
-175.612436
 20
356.473514
 30
0.0
 11
-175.612436
 21
362.373514
 31
0.0
  0
LINE
  8
0
 10
-138.212436
 20
354.873514
 30
0.0
 11
-138.212436
 21
356.473514
 31
0.0
  0
LINE
  8
0
 10
-175.012436
 20
354.873514
 30
0.0
 11
-175.012436
 21
356.473514
 31
0.0
  0
LINE
  8
0
 10
-175.612436
 20
354.873514
 30
0.0
 11
-137.612436
 21
354.873514
 31
0.0
  0
LINE
  8
0
 10
-175.612436
 20
356.473514
 30
0.0
 11
-137.612436
 21
356.473514
 31
0.0
  0
LINE
  8
0
 10
-175.612436
 20
348.973514
 30
0.0
 11
-137.612436
 21
348.973514
 31
0.0
  0
LINE
  8
0
 10
-175.612436
 20
362.373514
 30
0.0
 11
-137.612436
 21
362.373514
 31
0.0
  0
LINE
  8
0
 10
-138.412436
 20
363.173514
 30
0.0
 11
-137.612436
 21
362.373514
 31
0.0
  0
LINE
  8
0
 10
-138.412436
 20
348.173514
 30
0.0
 11
-137.612436
 21
348.973514
 31
0.0
  0
LINE
  8
0
 10
-175.612436
 20
348.973514
 30
0.0
 11
-174.812436
 21
348.173514
 31
0.0
  0
LINE
  8
0
 10
-175.612436
 20
362.373514
 30
0.0
 11
-174.812436
 21
363.173514
 31
0.0
  0
LINE
  8
0
 10
-137.612436
 20
348.973514
 30
0.0
 11
-137.612436
 21
354.873514
 31
0.0
  0
LINE
  8
0
 10
-175.612436
 20
348.973514
 30
0.0
 11
-175.612436
 21
354.873514
 31
0.0
  0
LINE
  8
0
 10
-174.812436
 20
348.173514
 30
0.0
 11
-138.412436
 21
348.173514
 31
0.0
  0
LINE
  8
0
 10
-174.812436
 20
363.173514
 30
0.0
 11
-138.412436
 21
363.173514
 31
0.0
  0
ARC
  8
0
 10
-156.612436
 20
355.673514
 30
0.0
 40
14.3
 50
312.754792
 51
328.367057
  0
ARC
  8
0
 10
-156.612436
 20
355.673514
 30
0.0
 40
14.3
 50
132.754792
 51
148.367057
  0
ARC
  8
0
 10
-156.612436
 20
355.673514
 30
0.0
 40
14.3
 50
31.632943
 51
47.245208
  0
ARC
  8
0
 10
-156.612436
 20
355.673514
 30
0.0
 40
14.3
 50
211.632943
 51
227.245208
  0
LINE
  8
0
 10
-166.320165
 20
366.173514
 30
0.0
 11
-146.904707
 21
366.173514
 31
0.0
  0
LINE
  8
0
 10
-166.320165
 20
345.173514
 30
0.0
 11
-146.904707
 21
345.173514
 31
0.0
  0
ARC
  8
0
 10
-97.317815
 20
357.765246
 30
0.0
 40
15.875
 50
313.580257
 51
328.688873
  0
ARC
  8
0
 10
-97.317815
 20
357.765246
 30
0.0
 40
15.875
 50
31.311127
 51
46.419743
  0
ARC
  8
0
 10
-97.317815
 20
357.765246
 30
0.0
 40
15.875
 50
211.311127
 51
226.419743
  0
ARC
  8
0
 10
-97.317815
 20
357.765246
 30
0.0
 40
15.875
 50
133.580257
 51
148.688873
  0
LINE
  8
0
 10
-108.261563
 20
369.265246
 30
0.0
 11
-86.374066
 21
369.265246
 31
0.0
  0
LINE
  8
0
 10
-108.261563
 20
346.265246
 30
0.0
 11
-86.374066
 21
346.265246
 31
0.0
  0
ENDSEC
  0
EOF
