  0
SECTION
  2
HEADER
  9
$ACADVER
  1
AC1009
  9
$INSBASE
 10
0.0
 20
0.0
 30
0.0
  9
$EXTMIN
 10
-475.482327
 20
-427.215093
 30
0.0
  9
$EXTMAX
 10
261.605715
 20
131.866435
 30
0.0
  9
$LIMMIN
 10
0.0
 20
0.0
  9
$LIMMAX
 10
12.0
 20
9.0
  9
$ORTHOMODE
 70
     1
  9
$REGENMODE
 70
     1
  9
$FILLMODE
 70
     1
  9
$QTEXTMODE
 70
     0
  9
$MIRRTEXT
 70
     1
  9
$DRAGMODE
 70
     2
  9
$LTSCALE
 40
7.0
  9
$OSMODE
 70
     0
  9
$ATTMODE
 70
     1
  9
$TEXTSIZE
 40
10.647957
  9
$TRACEWID
 40
0.05
  9
$TEXTSTYLE
  7
STANDARD
  9
$CLAYER
  8
0
  9
$CELTYPE
  6
BYLAYER
  9
$CECOLOR
 62
   256
  9
$DIMSCALE
 40
1.0
  9
$DIMASZ
 40
2.5
  9
$DIMEXO
 40
0.0
  9
$DIMDLI
 40
5.0
  9
$DIMRND
 40
0.0
  9
$DIMDLE
 40
0.0
  9
$DIMEXE
 40
1.0
  9
$DIMTP
 40
0.0
  9
$DIMTM
 40
0.0
  9
$DIMTXT
 40
2.5
  9
$DIMCEN
 40
0.09
  9
$DIMTSZ
 40
0.0
  9
$DIMTOL
 70
     0
  9
$DIMLIM
 70
     0
  9
$DIMTIH
 70
     0
  9
$DIMTOH
 70
     0
  9
$DIMSE1
 70
     0
  9
$DIMSE2
 70
     0
  9
$DIMTAD
 70
     1
  9
$DIMZIN
 70
     0
  9
$DIMBLK
  1

  9
$DIMASO
 70
     0
  9
$DIMSHO
 70
     0
  9
$DIMPOST
  1

  9
$DIMAPOST
  1

  9
$DIMALT
 70
     0
  9
$DIMALTD
 70
     2
  9
$DIMALTF
 40
25.4
  9
$DIMLFAC
 40
1.0
  9
$DIMTOFL
 70
     1
  9
$DIMTVP
 40
0.0
  9
$DIMTIX
 70
     0
  9
$DIMSOXD
 70
     0
  9
$DIMSAH
 70
     0
  9
$DIMBLK1
  1

  9
$DIMBLK2
  1

  9
$DIMSTYLE
  2
*UNNAMED
  9
$DIMCLRD
 70
     0
  9
$DIMCLRE
 70
     0
  9
$DIMCLRT
 70
     0
  9
$DIMTFAC
 40
1.0
  9
$DIMGAP
 40
0.09
  9
$LUNITS
 70
     2
  9
$LUPREC
 70
     4
  9
$SKETCHINC
 40
0.1
  9
$FILLETRAD
 40
5.0
  9
$AUNITS
 70
     0
  9
$AUPREC
 70
     0
  9
$MENU
  1
wiberger
  9
$ELEVATION
 40
0.0
  9
$PELEVATION
 40
0.0
  9
$THICKNESS
 40
0.0
  9
$LIMCHECK
 70
     0
  9
$BLIPMODE
 70
     1
  9
$CHAMFERA
 40
1.5
  9
$CHAMFERB
 40
1.5
  9
$SKPOLY
 70
     0
  9
$TDCREATE
 40
2450193.296893171
  9
$TDUPDATE
 40
2450213.623567014
  9
$TDINDWG
 40
0.0142946759
  9
$TDUSRTIMER
 40
0.0142946759
  9
$USRTIMER
 70
     1
  9
$ANGBASE
 50
0.0
  9
$ANGDIR
 70
     0
  9
$PDMODE
 70
     0
  9
$PDSIZE
 40
0.0
  9
$PLINEWID
 40
0.0
  9
$COORDS
 70
     0
  9
$SPLFRAME
 70
     0
  9
$SPLINETYPE
 70
     6
  9
$SPLINESEGS
 70
     8
  9
$ATTDIA
 70
     0
  9
$ATTREQ
 70
     1
  9
$HANDLING
 70
     0
  9
$HANDSEED
  5
0
  9
$SURFTAB1
 70
     6
  9
$SURFTAB2
 70
     6
  9
$SURFTYPE
 70
     6
  9
$SURFU
 70
     6
  9
$SURFV
 70
     6
  9
$UCSNAME
  2

  9
$UCSORG
 10
0.0
 20
0.0
 30
0.0
  9
$UCSXDIR
 10
1.0
 20
0.0
 30
0.0
  9
$UCSYDIR
 10
0.0
 20
1.0
 30
0.0
  9
$PUCSNAME
  2

  9
$PUCSORG
 10
0.0
 20
0.0
 30
0.0
  9
$PUCSXDIR
 10
1.0
 20
0.0
 30
0.0
  9
$PUCSYDIR
 10
0.0
 20
1.0
 30
0.0
  9
$USERI1
 70
     0
  9
$USERI2
 70
     0
  9
$USERI3
 70
     0
  9
$USERI4
 70
     0
  9
$USERI5
 70
     0
  9
$USERR1
 40
0.0
  9
$USERR2
 40
0.0
  9
$USERR3
 40
0.0
  9
$USERR4
 40
0.0
  9
$USERR5
 40
0.0
  9
$WORLDVIEW
 70
     1
  9
$SHADEDGE
 70
     3
  9
$SHADEDIF
 70
    70
  9
$TILEMODE
 70
     1
  9
$MAXACTVP
 70
    16
  9
$PINSBASE
 10
0.0
 20
0.0
 30
0.0
  9
$PLIMCHECK
 70
     0
  9
$PEXTMIN
 10
1.000000E+20
 20
1.000000E+20
 30
1.000000E+20
  9
$PEXTMAX
 10
-1.000000E+20
 20
-1.000000E+20
 30
-1.000000E+20
  9
$PLIMMIN
 10
0.0
 20
0.0
  9
$PLIMMAX
 10
12.0
 20
9.0
  9
$UNITMODE
 70
     0
  9
$VISRETAIN
 70
     0
  9
$PLINEGEN
 70
     0
  9
$PSLTSCALE
 70
     0
  9
$TREEDEPTH
 70
  3020
  9
$DWGCODEPAGE
  3
undefined
  0
ENDSEC
  0
SECTION
  2
TABLES
  0
TABLE
  2
VPORT
 70
     2
  0
VPORT
  2
*ACTIVE
 70
     0
 10
0.0
 20
0.0
 11
1.0
 21
1.0
 12
28.9075
 22
-147.674329
 13
0.0
 23
0.0
 14
1.0
 24
1.0
 15
0.0
 25
0.0
 16
0.0
 26
0.0
 36
1.0
 17
0.0
 27
0.0
 37
0.0
 40
621.201698
 41
1.767507
 42
50.0
 43
0.0
 44
0.0
 50
0.0
 51
0.0
 71
     0
 72
     0
 73
     1
 74
     0
 75
     0
 76
     0
 77
     0
 78
     0
  0
ENDTAB
  0
TABLE
  2
LTYPE
 70
     4
  0
LTYPE
  2
CONTINUOUS
 70
    64
  3
Solid line
 72
    65
 73
     0
 40
0.0
  0
LTYPE
  2
DASHED
 70
    64
  3
__ __ __ __ __ __ __ __ __ __ __ __ __ __ __
 72
    65
 73
     2
 40
0.75
 49
0.5
 49
-0.25
  0
LTYPE
  2
HIDDEN
 70
     0
  3
_ _ _ _ _ _ _ _ _ _ _ _ _ _ _ _ _ _ _ _ _ _ _
 72
    65
 73
     2
 40
0.375
 49
0.25
 49
-0.125
  0
LTYPE
  2
CENTER
 70
     0
  3
____ _ ____ _ ____ _ ____ _ ____ _ ____ _ ____
 72
    65
 73
     4
 40
2.0
 49
1.25
 49
-0.25
 49
0.25
 49
-0.25
  0
ENDTAB
  0
TABLE
  2
LAYER
 70
     1
  0
LAYER
  2
0
 70
    64
 62
     7
  6
CONTINUOUS
  0
ENDTAB
  0
TABLE
  2
STYLE
 70
     1
  0
STYLE
  2
STANDARD
 70
     0
 40
0.0
 41
1.0
 50
0.0
 71
     0
 42
10.647957
  3
txt
  4

  0
ENDTAB
  0
TABLE
  2
VIEW
 70
     0
  0
ENDTAB
  0
TABLE
  2
UCS
 70
     0
  0
ENDTAB
  0
TABLE
  2
APPID
 70
     1
  0
APPID
  2
ACAD
 70
    64
  0
ENDTAB
  0
TABLE
  2
DIMSTYLE
 70
     0
  0
ENDTAB
  0
ENDSEC
  0
SECTION
  2
BLOCKS
  0
ENDSEC
  0
SECTION
  2
ENTITIES
  0
LINE
  8
0
 10
-366.165133
 20
61.901768
 30
0.0
 11
-370.616636
 21
58.532979
 31
0.0
  0
LINE
  8
0
 10
-366.165133
 20
74.301768
 30
0.0
 11
-370.616636
 21
77.670557
 31
0.0
  0
LINE
  8
0
  6
DASHED
 10
-357.858064
 20
64.101768
 30
0.0
 11
-341.858064
 21
64.101768
 31
0.0
  0
LINE
  8
0
  6
DASHED
 10
-357.858064
 20
72.101768
 30
0.0
 11
-341.858064
 21
72.101768
 31
0.0
  0
CIRCLE
  8
0
 10
-377.858064
 20
68.101768
 30
0.0
 40
9.0
  0
ARC
  8
0
 10
-377.858064
 20
68.101768
 30
0.0
 40
11.0
 50
41.409622
 51
318.590378
  0
CIRCLE
  8
0
 10
-377.858064
 20
68.101768
 30
0.0
 40
6.75
  0
CIRCLE
  8
0
 10
-377.858064
 20
68.101768
 30
0.0
 40
5.25
  0
ARC
  8
0
 10
-377.858064
 20
68.101768
 30
0.0
 40
12.0
 50
52.882447
 51
307.117553
  0
CIRCLE
  8
0
 10
-377.858064
 20
68.101768
 30
0.0
 40
4.0
  0
LINE
  8
0
 10
-341.858064
 20
60.101768
 30
0.0
 11
-341.858064
 21
76.101768
 31
0.0
  0
LINE
  8
0
 10
-366.165133
 20
74.301768
 30
0.0
 11
-348.858064
 21
74.301768
 31
0.0
  0
LINE
  8
0
 10
-366.165133
 20
61.901768
 30
0.0
 11
-348.858064
 21
61.901768
 31
0.0
  0
LINE
  8
0
 10
-347.058064
 20
76.101768
 30
0.0
 11
-341.858064
 21
76.101768
 31
0.0
  0
LINE
  8
0
 10
-347.058064
 20
60.101768
 30
0.0
 11
-341.858064
 21
60.101768
 31
0.0
  0
LINE
  8
0
 10
-347.058064
 20
60.101768
 30
0.0
 11
-347.058064
 21
76.101768
 31
0.0
  0
LINE
  8
0
 10
-347.058064
 20
76.101768
 30
0.0
 11
-348.858064
 21
74.301768
 31
0.0
  0
LINE
  8
0
 10
-347.058064
 20
60.101768
 30
0.0
 11
-348.858064
 21
61.901768
 31
0.0
  0
LINE
  8
0
 10
-348.858064
 20
74.301768
 30
0.0
 11
-348.858064
 21
61.901768
 31
0.0
  0
LINE
  8
0
 10
-341.858064
 20
72.765458
 30
0.0
 11
-347.058064
 21
72.765458
 31
0.0
  0
LINE
  8
0
 10
-341.858064
 20
63.438079
 30
0.0
 11
-347.058064
 21
63.438079
 31
0.0
  0
LINE
  8
0
 10
-347.058064
 20
72.765458
 30
0.0
 11
-341.858064
 21
63.438079
 31
0.0
  0
LINE
  8
0
 10
-347.058064
 20
63.438079
 30
0.0
 11
-341.858064
 21
72.765458
 31
0.0
  0
LINE
  8
0
  6
DASHED
 10
-357.858064
 20
64.101768
 30
0.0
 11
-357.858064
 21
72.101768
 31
0.0
  0
LINE
  8
0
 10
-366.0476
 20
64.863138
 30
0.0
 11
-366.0476
 21
71.340398
 31
0.0
  0
ARC
  8
0
 10
-367.858064
 20
68.101768
 30
0.0
 40
3.5
 50
318.590378
 51
41.409622
  0
LINE
  8
0
 10
-365.233064
 20
70.416801
 30
0.0
 11
-369.608064
 21
75.377584
 31
0.0
  0
LINE
  8
0
 10
-365.233064
 20
65.786736
 30
0.0
 11
-369.608064
 21
60.825952
 31
0.0
  0
CIRCLE
  8
0
 10
-377.858064
 20
-0.46926
 30
0.0
 40
10.25
  0
LINE
  8
0
  6
DASHED
 10
-354.858064
 20
-5.46926
 30
0.0
 11
-334.858064
 21
-5.46926
 31
0.0
  0
LINE
  8
0
  6
DASHED
 10
-354.858064
 20
4.53074
 30
0.0
 11
-334.858064
 21
4.53074
 31
0.0
  0
CIRCLE
  8
0
 10
-377.858064
 20
-0.46926
 30
0.0
 40
12.8
  0
CIRCLE
  8
0
 10
-377.858064
 20
-0.46926
 30
0.0
 40
8.5
  0
CIRCLE
  8
0
 10
-377.858064
 20
-0.46926
 30
0.0
 40
6.422616
  0
ARC
  8
0
 10
-377.858064
 20
-0.46926
 30
0.0
 40
14.0
 50
43.94551
 51
316.05447
  0
CIRCLE
  8
0
 10
-377.858064
 20
-0.46926
 30
0.0
 40
5.0
  0
LINE
  8
0
 10
-334.858064
 20
8.93074
 30
0.0
 11
-334.858064
 21
-9.86926
 31
0.0
  0
LINE
  8
0
 10
-341.058064
 20
8.93074
 30
0.0
 11
-334.858064
 21
8.93074
 31
0.0
  0
LINE
  8
0
 10
-341.058064
 20
-9.86926
 30
0.0
 11
-334.858064
 21
-9.86926
 31
0.0
  0
LINE
  8
0
 10
-341.058064
 20
8.93074
 30
0.0
 11
-341.058064
 21
-9.86926
 31
0.0
  0
LINE
  8
0
 10
-365.642516
 20
7.03074
 30
0.0
 11
-342.958064
 21
7.03074
 31
0.0
  0
LINE
  8
0
 10
-365.642515
 20
-7.96926
 30
0.0
 11
-342.958064
 21
-7.96926
 31
0.0
  0
LINE
  8
0
 10
-341.058064
 20
8.93074
 30
0.0
 11
-342.958064
 21
7.03074
 31
0.0
  0
LINE
  8
0
 10
-341.058064
 20
-9.86926
 30
0.0
 11
-342.958064
 21
-7.96926
 31
0.0
  0
LINE
  8
0
 10
-342.958064
 20
7.03074
 30
0.0
 11
-342.958064
 21
-7.96926
 31
0.0
  0
LINE
  8
0
  6
DASHED
 10
-354.858064
 20
4.53074
 30
0.0
 11
-354.858064
 21
-5.46926
 31
0.0
  0
LINE
  8
0
 10
-362.558064
 20
3.83061
 30
0.0
 11
-362.558064
 21
-4.769135
 31
0.0
  0
ARC
  8
0
 10
-365.358064
 20
-0.469262
 30
0.0
 40
5.0
 50
316.05447
 51
43.945544
  0
LINE
  8
0
 10
-367.778065
 20
-10.184899
 30
0.0
 11
-361.758064
 21
-3.939133
 31
0.0
  0
LINE
  8
0
 10
-367.778062
 20
9.246375
 30
0.0
 11
-361.758063
 21
3.000607
 31
0.0
  0
LINE
  8
0
 10
-334.858064
 20
3.77338
 30
0.0
 11
-341.058064
 21
3.77338
 31
0.0
  0
LINE
  8
0
 10
-334.858064
 20
-4.711901
 30
0.0
 11
-341.058064
 21
-4.711901
 31
0.0
  0
LINE
  8
0
 10
-341.058064
 20
3.77338
 30
0.0
 11
-334.858064
 21
-4.711901
 31
0.0
  0
LINE
  8
0
 10
-334.858064
 20
3.77338
 30
0.0
 11
-341.058064
 21
-4.711901
 31
0.0
  0
ARC
  8
0
 10
-377.858064
 20
-160.365639
 30
0.0
 40
16.25
 50
48.565398
 51
311.434599
  0
CIRCLE
  8
0
 10
-377.858064
 20
-160.365639
 30
0.0
 40
13.7
  0
CIRCLE
  8
0
 10
-377.858064
 20
-160.365639
 30
0.0
 40
11.3
  0
LINE
  8
0
 10
-361.458064
 20
-150.165639
 30
0.0
 11
-367.058064
 21
-145.965639
 31
0.0
  0
LINE
  8
0
 10
-361.458064
 20
-170.565639
 30
0.0
 11
-367.058064
 21
-174.765639
 31
0.0
  0
LINE
  8
0
  6
DASHED
 10
-345.858064
 20
-167.365639
 30
0.0
 11
-320.858064
 21
-167.365639
 31
0.0
  0
LINE
  8
0
  6
DASHED
 10
-345.858064
 20
-153.365639
 30
0.0
 11
-320.858064
 21
-153.365639
 31
0.0
  0
CIRCLE
  8
0
 10
-377.858064
 20
-160.365639
 30
0.0
 40
7.0
  0
ARC
  8
0
 10
-377.858064
 20
-160.365639
 30
0.0
 40
18.0
 50
53.130102
 51
306.869898
  0
CIRCLE
  8
0
 10
-377.858064
 20
-160.365639
 30
0.0
 40
8.428523
  0
LINE
  8
0
 10
-320.858064
 20
-147.865639
 30
0.0
 11
-320.858064
 21
-172.865639
 31
0.0
  0
LINE
  8
0
 10
-328.158064
 20
-147.865639
 30
0.0
 11
-320.858064
 21
-147.865639
 31
0.0
  0
LINE
  8
0
 10
-328.158064
 20
-172.865639
 30
0.0
 11
-320.858064
 21
-172.865639
 31
0.0
  0
LINE
  8
0
 10
-328.158064
 20
-147.865639
 30
0.0
 11
-328.158064
 21
-172.865639
 31
0.0
  0
LINE
  8
0
 10
-361.458064
 20
-150.165639
 30
0.0
 11
-330.458064
 21
-150.165639
 31
0.0
  0
LINE
  8
0
 10
-361.458064
 20
-170.565639
 30
0.0
 11
-330.458064
 21
-170.565639
 31
0.0
  0
LINE
  8
0
 10
-328.158064
 20
-147.865639
 30
0.0
 11
-330.458064
 21
-150.165639
 31
0.0
  0
LINE
  8
0
 10
-328.158064
 20
-172.865639
 30
0.0
 11
-330.458064
 21
-170.565639
 31
0.0
  0
LINE
  8
0
 10
-320.858064
 20
-154.428468
 30
0.0
 11
-328.158064
 21
-154.428468
 31
0.0
  0
LINE
  8
0
 10
-320.858064
 20
-166.30281
 30
0.0
 11
-328.158064
 21
-166.30281
 31
0.0
  0
LINE
  8
0
 10
-328.158064
 20
-154.428468
 30
0.0
 11
-320.858064
 21
-166.30281
 31
0.0
  0
LINE
  8
0
 10
-320.858064
 20
-154.428468
 30
0.0
 11
-328.158064
 21
-166.30281
 31
0.0
  0
LINE
  8
0
 10
-330.458064
 20
-150.165639
 30
0.0
 11
-330.458064
 21
-170.565639
 31
0.0
  0
LINE
  8
0
  6
DASHED
 10
-345.858064
 20
-153.365639
 30
0.0
 11
-345.858064
 21
-167.365639
 31
0.0
  0
LINE
  8
0
 10
-361.358064
 20
-153.255061
 30
0.0
 11
-361.358064
 21
-167.476216
 31
0.0
  0
ARC
  8
0
 10
-360.858064
 20
-160.365639
 30
0.0
 40
5.0
 50
311.434599
 51
48.565401
  0
LINE
  8
0
 10
-357.54924
 20
-156.617081
 30
0.0
 11
-367.104387
 21
-148.182825
 31
0.0
  0
LINE
  8
0
 10
-357.54924
 20
-164.114197
 30
0.0
 11
-367.104387
 21
-172.548452
 31
0.0
  0
LINE
  8
0
  6
DASHED
 10
-341.858064
 20
-265.169532
 30
0.0
 11
-313.858064
 21
-265.169532
 31
0.0
  0
LINE
  8
0
  6
DASHED
 10
-341.858064
 20
-249.169532
 30
0.0
 11
-313.858064
 21
-249.169532
 31
0.0
  0
ARC
  8
0
 10
-377.858064
 20
-257.169532
 30
0.0
 40
18.75
 50
59.209212
 51
300.790788
  0
CIRCLE
  8
0
 10
-377.858064
 20
-257.169532
 30
0.0
 40
15.5
  0
ARC
  8
0
 10
-377.858064
 20
-257.169532
 30
0.0
 40
21.0
 50
58.854489
 51
301.145511
  0
CIRCLE
  8
0
 10
-377.858064
 20
-257.169532
 30
0.0
 40
12.175385
  0
CIRCLE
  8
0
 10
-377.858064
 20
-257.169532
 30
0.0
 40
9.707729
  0
CIRCLE
  8
0
 10
-377.858064
 20
-257.169532
 30
0.0
 40
8.0
  0
LINE
  8
0
 10
-355.458064
 20
-246.169532
 30
0.0
 11
-323.858064
 21
-246.169532
 31
0.0
  0
LINE
  8
0
 10
-355.458064
 20
-268.169532
 30
0.0
 11
-323.858064
 21
-268.169532
 31
0.0
  0
LINE
  8
0
 10
-313.858064
 20
-243.769532
 30
0.0
 11
-313.858064
 21
-270.569532
 31
0.0
  0
LINE
  8
0
 10
-320.858064
 20
-243.769532
 30
0.0
 11
-320.858064
 21
-270.569532
 31
0.0
  0
LINE
  8
0
 10
-323.858064
 20
-246.169532
 30
0.0
 11
-323.858064
 21
-268.169532
 31
0.0
  0
LINE
  8
0
 10
-320.858064
 20
-243.769532
 30
0.0
 11
-313.858064
 21
-243.769532
 31
0.0
  0
LINE
  8
0
 10
-320.858064
 20
-270.569532
 30
0.0
 11
-313.858064
 21
-270.569532
 31
0.0
  0
LINE
  8
0
 10
-323.858064
 20
-246.169532
 30
0.0
 11
-320.858064
 21
-243.769532
 31
0.0
  0
LINE
  8
0
 10
-323.858064
 20
-268.169532
 30
0.0
 11
-320.858064
 21
-270.569532
 31
0.0
  0
LINE
  8
0
  6
DASHED
 10
-341.858064
 20
-249.169532
 30
0.0
 11
-341.858064
 21
-265.169532
 31
0.0
  0
LINE
  8
0
 10
-313.858064
 20
-249.517082
 30
0.0
 11
-320.858064
 21
-249.517082
 31
0.0
  0
LINE
  8
0
 10
-313.858064
 20
-264.821983
 30
0.0
 11
-320.858064
 21
-264.821983
 31
0.0
  0
LINE
  8
0
 10
-320.858064
 20
-249.517082
 30
0.0
 11
-313.858064
 21
-264.821983
 31
0.0
  0
LINE
  8
0
 10
-320.858064
 20
-264.821983
 30
0.0
 11
-313.858064
 21
-249.517082
 31
0.0
  0
LINE
  8
0
 10
-355.458064
 20
-246.169532
 30
0.0
 11
-366.996584
 21
-239.196545
 31
0.0
  0
LINE
  8
0
 10
-355.458064
 20
-268.169532
 30
0.0
 11
-366.996584
 21
-275.142519
 31
0.0
  0
LINE
  8
0
 10
-355.458064
 20
-248.691097
 30
0.0
 11
-355.458064
 21
-265.647967
 31
0.0
  0
ARC
  8
0
 10
-356.858064
 20
-257.169532
 30
0.0
 40
8.0
 50
300.790788
 51
59.209212
  0
LINE
  8
0
 10
-352.762825
 20
-250.297195
 30
0.0
 11
-368.259849
 21
-241.062491
 31
0.0
  0
LINE
  8
0
 10
-352.762825
 20
-264.04187
 30
0.0
 11
-368.259849
 21
-273.276574
 31
0.0
  0
LINE
  8
0
  6
DASHED
 10
-338.858064
 20
-374.518617
 30
0.0
 11
-306.658064
 21
-374.518617
 31
0.0
  0
LINE
  8
0
  6
DASHED
 10
-338.858064
 20
-356.518617
 30
0.0
 11
-306.658064
 21
-356.518617
 31
0.0
  0
CIRCLE
  8
0
 10
-377.858064
 20
-365.518617
 30
0.0
 40
17.0
  0
ARC
  8
0
 10
-377.858064
 20
-365.518617
 30
0.0
 40
20.9
 50
50.76588
 51
309.23412
  0
ARC
  8
0
 10
-377.858064
 20
-365.518617
 30
0.0
 40
23.0
 50
54.858142
 51
305.141858
  0
CIRCLE
  8
0
 10
-377.858064
 20
-365.518617
 30
0.0
 40
10.943748
  0
CIRCLE
  8
0
 10
-377.858064
 20
-365.518617
 30
0.0
 40
13.562932
  0
CIRCLE
  8
0
 10
-377.858064
 20
-365.518617
 30
0.0
 40
9.0
  0
LINE
  8
0
 10
-355.658064
 20
-353.018617
 30
0.0
 11
-318.458064
 21
-353.018617
 31
0.0
  0
LINE
  8
0
 10
-355.658064
 20
-378.018617
 30
0.0
 11
-318.458064
 21
-378.018617
 31
0.0
  0
LINE
  8
0
 10
-306.858064
 20
-350.118617
 30
0.0
 11
-306.858064
 21
-380.918617
 31
0.0
  0
LINE
  8
0
 10
-315.558064
 20
-350.118617
 30
0.0
 11
-315.558064
 21
-380.918617
 31
0.0
  0
LINE
  8
0
 10
-315.558064
 20
-350.118617
 30
0.0
 11
-306.858064
 21
-350.118617
 31
0.0
  0
LINE
  8
0
 10
-315.558064
 20
-380.918617
 30
0.0
 11
-306.858064
 21
-380.918617
 31
0.0
  0
LINE
  8
0
 10
-315.558064
 20
-350.118617
 30
0.0
 11
-318.458064
 21
-353.018617
 31
0.0
  0
LINE
  8
0
 10
-315.558064
 20
-380.918617
 30
0.0
 11
-318.458064
 21
-378.018617
 31
0.0
  0
LINE
  8
0
 10
-318.458064
 20
-353.018617
 30
0.0
 11
-318.458064
 21
-378.018617
 31
0.0
  0
LINE
  8
0
  6
DASHED
 10
-338.858064
 20
-356.518617
 30
0.0
 11
-338.858064
 21
-374.518617
 31
0.0
  0
LINE
  8
0
 10
-355.658064
 20
-356.663736
 30
0.0
 11
-355.658064
 21
-374.373498
 31
0.0
  0
LINE
  8
0
 10
-355.658064
 20
-353.018617
 30
0.0
 11
-364.619199
 21
-346.71084
 31
0.0
  0
LINE
  8
0
 10
-355.658064
 20
-378.018617
 30
0.0
 11
-364.619199
 21
-384.326394
 31
0.0
  0
ARC
  8
0
 10
-358.538826
 20
-365.518617
 30
0.0
 40
8.680762
 50
309.23412
 51
50.76588
  0
LINE
  8
0
 10
-364.639008
 20
-349.330146
 30
0.0
 11
-353.048325
 21
-358.794777
 31
0.0
  0
LINE
  8
0
 10
-364.639008
 20
-381.707088
 30
0.0
 11
-353.048325
 21
-372.242458
 31
0.0
  0
LINE
  8
0
 10
-306.858064
 20
-358.108489
 30
0.0
 11
-315.558064
 21
-358.108489
 31
0.0
  0
LINE
  8
0
 10
-306.858064
 20
-372.928745
 30
0.0
 11
-315.558064
 21
-372.928745
 31
0.0
  0
LINE
  8
0
 10
-315.558064
 20
-372.928745
 30
0.0
 11
-306.858064
 21
-358.108489
 31
0.0
  0
LINE
  8
0
 10
-315.558064
 20
-358.108489
 30
0.0
 11
-306.858064
 21
-372.928745
 31
0.0
  0
CIRCLE
  8
0
 10
46.92729
 20
106.866435
 30
0.0
 40
18.5
  0
ARC
  8
0
 10
46.92729
 20
106.866435
 30
0.0
 40
23.0
 50
51.490697
 51
308.509303
  0
LINE
  8
0
 10
69.472407
 20
93.116435
 30
0.0
 11
62.940755
 21
87.668286
 31
0.0
  0
LINE
  8
0
 10
69.472407
 20
120.616435
 30
0.0
 11
62.940755
 21
126.064584
 31
0.0
  0
LINE
  8
0
  6
DASHED
 10
90.92729
 20
96.866435
 30
0.0
 11
123.92729
 21
96.866435
 31
0.0
  0
LINE
  8
0
  6
DASHED
 10
90.92729
 20
116.866435
 30
0.0
 11
123.92729
 21
116.866435
 31
0.0
  0
ARC
  8
0
 10
46.92729
 20
106.866435
 30
0.0
 40
25.0
 50
50.167995
 51
309.832005
  0
CIRCLE
  8
0
 10
46.92729
 20
106.866435
 30
0.0
 40
12.247449
  0
CIRCLE
  8
0
 10
46.92729
 20
106.866435
 30
0.0
 40
15.008331
  0
CIRCLE
  8
0
 10
46.92729
 20
106.866435
 30
0.0
 40
10.0
  0
LINE
  8
0
 10
123.92729
 20
123.866435
 30
0.0
 11
123.92729
 21
89.866435
 31
0.0
  0
LINE
  8
0
 10
123.92729
 20
123.866435
 30
0.0
 11
114.92729
 21
123.866435
 31
0.0
  0
LINE
  8
0
 10
123.92729
 20
89.866435
 30
0.0
 11
114.92729
 21
89.866435
 31
0.0
  0
LINE
  8
0
 10
69.472407
 20
120.616435
 30
0.0
 11
111.67729
 21
120.616435
 31
0.0
  0
LINE
  8
0
 10
69.472407
 20
93.116435
 30
0.0
 11
111.67729
 21
93.116435
 31
0.0
  0
LINE
  8
0
 10
114.92729
 20
123.866435
 30
0.0
 11
114.92729
 21
89.866435
 31
0.0
  0
LINE
  8
0
 10
114.92729
 20
123.866435
 30
0.0
 11
111.67729
 21
120.616435
 31
0.0
  0
LINE
  8
0
 10
114.92729
 20
89.866435
 30
0.0
 11
111.67729
 21
93.116435
 31
0.0
  0
LINE
  8
0
 10
111.67729
 20
120.616435
 30
0.0
 11
111.67729
 21
93.116435
 31
0.0
  0
LINE
  8
0
  6
DASHED
 10
90.92729
 20
116.866435
 30
0.0
 11
90.92729
 21
96.866435
 31
0.0
  0
LINE
  8
0
 10
123.92729
 20
112.610998
 30
0.0
 11
114.92729
 21
112.610998
 31
0.0
  0
LINE
  8
0
 10
123.92729
 20
101.121873
 30
0.0
 11
114.92729
 21
101.121873
 31
0.0
  0
LINE
  8
0
 10
114.92729
 20
101.121873
 30
0.0
 11
123.92729
 21
112.610998
 31
0.0
  0
LINE
  8
0
 10
123.92729
 20
101.121873
 30
0.0
 11
114.92729
 21
112.610998
 31
0.0
  0
LINE
  8
0
 10
72.72729
 20
115.730058
 30
0.0
 11
72.72729
 21
98.002812
 31
0.0
  0
ARC
  8
0
 10
73.42729
 20
106.866435
 30
0.0
 40
6.5
 50
308.509289
 51
51.490711
  0
LINE
  8
0
 10
77.47446
 20
111.952732
 30
0.0
 11
61.248045
 21
124.864101
 31
0.0
  0
LINE
  8
0
 10
77.47446
 20
101.780138
 30
0.0
 11
61.248045
 21
88.868769
 31
0.0
  0
CIRCLE
  8
0
 10
46.92729
 20
-19.488371
 30
0.0
 40
20.0
  0
LINE
  8
0
 10
74.419349
 20
-34.488371
 30
0.0
 11
60.808542
 21
-42.646757
 31
0.0
  0
LINE
  8
0
 10
74.419349
 20
-4.488371
 30
0.0
 11
60.808542
 21
3.670014
 31
0.0
  0
ARC
  8
0
 10
46.92729
 20
-19.488371
 30
0.0
 40
25.0
 50
51.317813
 51
308.682187
  0
LINE
  8
0
  6
DASHED
 10
93.92729
 20
-30.488371
 30
0.0
 11
130.92729
 21
-30.488371
 31
0.0
  0
LINE
  8
0
  6
DASHED
 10
93.92729
 20
-8.488371
 30
0.0
 11
130.92729
 21
-8.488371
 31
0.0
  0
CIRCLE
  8
0
 10
46.92729
 20
-19.488371
 30
0.0
 40
16.155494
  0
CIRCLE
  8
0
 10
46.92729
 20
-19.488371
 30
0.0
 40
12.845233
  0
LINE
  8
0
 10
130.92729
 20
-0.988371
 30
0.0
 11
130.92729
 21
-37.988371
 31
0.0
  0
ARC
  8
0
 10
46.92729
 20
-19.488371
 30
0.0
 40
27.0
 50
59.061291
 51
300.938704
  0
CIRCLE
  8
0
 10
46.92729
 20
-19.488371
 30
0.0
 40
11.0
  0
LINE
  8
0
 10
74.419349
 20
-4.488371
 30
0.0
 11
117.42729
 21
-4.488371
 31
0.0
  0
LINE
  8
0
 10
74.419349
 20
-34.488371
 30
0.0
 11
117.42729
 21
-34.488371
 31
0.0
  0
LINE
  8
0
 10
120.92729
 20
-0.988371
 30
0.0
 11
130.92729
 21
-0.988371
 31
0.0
  0
LINE
  8
0
 10
120.92729
 20
-37.988371
 30
0.0
 11
130.92729
 21
-37.988371
 31
0.0
  0
LINE
  8
0
 10
120.92729
 20
-0.988371
 30
0.0
 11
120.92729
 21
-37.988371
 31
0.0
  0
LINE
  8
0
 10
120.92729
 20
-0.988371
 30
0.0
 11
117.42729
 21
-4.488371
 31
0.0
  0
LINE
  8
0
 10
120.92729
 20
-37.988371
 30
0.0
 11
117.42729
 21
-34.488371
 31
0.0
  0
LINE
  8
0
 10
117.42729
 20
-4.488371
 30
0.0
 11
117.42729
 21
-34.488371
 31
0.0
  0
LINE
  8
0
 10
130.92729
 20
-10.201283
 30
0.0
 11
120.92729
 21
-10.201283
 31
0.0
  0
LINE
  8
0
 10
130.92729
 20
-28.775459
 30
0.0
 11
120.92729
 21
-28.775459
 31
0.0
  0
LINE
  8
0
 10
120.92729
 20
-10.201283
 30
0.0
 11
130.92729
 21
-28.775459
 31
0.0
  0
LINE
  8
0
 10
130.92729
 20
-10.201283
 30
0.0
 11
120.92729
 21
-28.775459
 31
0.0
  0
LINE
  8
0
  6
DASHED
 10
93.92729
 20
-8.488371
 30
0.0
 11
93.92729
 21
-30.488371
 31
0.0
  0
ARC
  8
0
 10
70.92729
 20
-19.488371
 30
0.0
 40
10.0
 50
308.682187
 51
51.317813
  0
LINE
  8
0
 10
77.17729
 20
-27.294619
 30
0.0
 11
62.55229
 21
-39.00399
 31
0.0
  0
LINE
  8
0
 10
77.17729
 20
-11.682124
 30
0.0
 11
62.55229
 21
0.027247
 31
0.0
  0
LINE
  8
0
 10
72.92729
 20
-8.2794
 30
0.0
 11
72.92729
 21
-30.697342
 31
0.0
  0
LINE
  8
0
 10
74.409026
 20
-169.571705
 30
0.0
 11
65.152271
 21
-176.65131
 31
0.0
  0
LINE
  8
0
 10
74.409026
 20
-136.071705
 30
0.0
 11
65.152271
 21
-128.992101
 31
0.0
  0
ARC
  8
0
 10
46.92729
 20
-152.821705
 30
0.0
 40
27.5
 50
51.926877
 51
308.073123
  0
CIRCLE
  8
0
 10
46.92729
 20
-152.821705
 30
0.0
 40
22.5
  0
CIRCLE
  8
0
 10
46.92729
 20
-152.821705
 30
0.0
 40
18.35647
  0
CIRCLE
  8
0
 10
46.92729
 20
-152.821705
 30
0.0
 40
14.754999
  0
ARC
  8
0
 10
46.92729
 20
-152.821705
 30
0.0
 40
30.0
 50
52.591064
 51
307.408936
  0
LINE
  8
0
  6
DASHED
 10
98.92729
 20
-164.821705
 30
0.0
 11
140.92729
 21
-164.821705
 31
0.0
  0
LINE
  8
0
  6
DASHED
 10
98.92729
 20
-140.821705
 30
0.0
 11
140.92729
 21
-140.821705
 31
0.0
  0
LINE
  8
0
 10
140.92729
 20
-173.821705
 30
0.0
 11
140.92729
 21
-131.821705
 31
0.0
  0
CIRCLE
  8
0
 10
46.92729
 20
-152.821705
 30
0.0
 40
12.5
  0
LINE
  8
0
 10
74.409026
 20
-136.071705
 30
0.0
 11
125.67729
 21
-136.071705
 31
0.0
  0
LINE
  8
0
 10
74.409026
 20
-169.571705
 30
0.0
 11
125.67729
 21
-169.571705
 31
0.0
  0
LINE
  8
0
 10
129.92729
 20
-131.821705
 30
0.0
 11
140.92729
 21
-131.821705
 31
0.0
  0
LINE
  8
0
 10
129.92729
 20
-173.821705
 30
0.0
 11
140.92729
 21
-173.821705
 31
0.0
  0
LINE
  8
0
 10
129.92729
 20
-173.821705
 30
0.0
 11
129.92729
 21
-131.821705
 31
0.0
  0
LINE
  8
0
 10
129.92729
 20
-131.821705
 30
0.0
 11
125.67729
 21
-136.071705
 31
0.0
  0
LINE
  8
0
 10
129.92729
 20
-173.821705
 30
0.0
 11
125.67729
 21
-169.571705
 31
0.0
  0
LINE
  8
0
 10
125.67729
 20
-136.071705
 30
0.0
 11
125.67729
 21
-169.571705
 31
0.0
  0
LINE
  8
0
  6
DASHED
 10
98.92729
 20
-164.821705
 30
0.0
 11
98.92729
 21
-140.821705
 31
0.0
  0
ARC
  8
0
 10
76.92729
 20
-152.821705
 30
0.0
 40
9.0
 50
308.073123
 51
51.926877
  0
LINE
  8
0
 10
82.47729
 20
-145.736686
 30
0.0
 11
63.885623
 21
-131.173035
 31
0.0
  0
LINE
  8
0
 10
82.47729
 20
-159.906725
 30
0.0
 11
63.885623
 21
-174.470376
 31
0.0
  0
LINE
  8
0
 10
75.22729
 20
-165.585961
 30
0.0
 11
75.22729
 21
-140.057449
 31
0.0
  0
LINE
  8
0
 10
140.92729
 20
-142.005051
 30
0.0
 11
129.92729
 21
-142.005051
 31
0.0
  0
LINE
  8
0
 10
140.92729
 20
-163.638359
 30
0.0
 11
129.92729
 21
-163.638359
 31
0.0
  0
LINE
  8
0
 10
140.92729
 20
-142.005051
 30
0.0
 11
129.92729
 21
-163.638359
 31
0.0
  0
LINE
  8
0
 10
140.92729
 20
-163.638359
 30
0.0
 11
129.92729
 21
-142.005051
 31
0.0
  0
CIRCLE
  8
0
 10
46.92729
 20
-312.241997
 30
0.0
 40
26.5
  0
ARC
  8
0
 10
46.92729
 20
-312.241997
 30
0.0
 40
31.5
 50
57.121626
 51
302.87835
  0
CIRCLE
  8
0
 10
46.92729
 20
-312.241997
 30
0.0
 40
22.226111
  0
CIRCLE
  8
0
 10
46.92729
 20
-312.241997
 30
0.0
 40
17.549929
  0
LINE
  8
0
 10
80.573077
 20
-332.241997
 30
0.0
 11
65.823884
 21
-341.702458
 31
0.0
  0
LINE
  8
0
 10
80.573077
 20
-292.241997
 30
0.0
 11
65.823884
 21
-282.781537
 31
0.0
  0
LINE
  8
0
  6
DASHED
 10
105.92729
 20
-327.241997
 30
0.0
 11
156.92729
 21
-327.241997
 31
0.0
  0
LINE
  8
0
  6
DASHED
 10
105.92729
 20
-297.241997
 30
0.0
 11
156.92729
 21
-297.241997
 31
0.0
  0
LINE
  8
0
 10
156.92729
 20
-337.241997
 30
0.0
 11
156.92729
 21
-287.241997
 31
0.0
  0
ARC
  8
0
 10
46.92729
 20
-312.241997
 30
0.0
 40
35.0
 50
57.322985
 51
302.677015
  0
CIRCLE
  8
0
 10
46.92729
 20
-312.241997
 30
0.0
 40
15.0
  0
LINE
  8
0
 10
156.92729
 20
-287.241997
 30
0.0
 11
141.92729
 21
-287.241997
 31
0.0
  0
LINE
  8
0
 10
156.92729
 20
-337.241997
 30
0.0
 11
141.92729
 21
-337.241997
 31
0.0
  0
LINE
  8
0
 10
141.92729
 20
-337.241997
 30
0.0
 11
141.92729
 21
-287.241997
 31
0.0
  0
LINE
  8
0
 10
80.573077
 20
-292.241997
 30
0.0
 11
136.92729
 21
-292.241997
 31
0.0
  0
LINE
  8
0
 10
80.573077
 20
-332.241997
 30
0.0
 11
136.92729
 21
-332.241997
 31
0.0
  0
LINE
  8
0
 10
141.92729
 20
-287.241997
 30
0.0
 11
136.92729
 21
-292.241997
 31
0.0
  0
LINE
  8
0
 10
141.92729
 20
-337.241997
 30
0.0
 11
136.92729
 21
-332.241997
 31
0.0
  0
LINE
  8
0
 10
136.92729
 20
-292.241997
 30
0.0
 11
136.92729
 21
-332.241997
 31
0.0
  0
LINE
  8
0
  6
DASHED
 10
105.92729
 20
-327.241997
 30
0.0
 11
105.92729
 21
-297.241997
 31
0.0
  0
LINE
  8
0
 10
156.92729
 20
-297.932909
 30
0.0
 11
141.92729
 21
-297.932909
 31
0.0
  0
LINE
  8
0
 10
156.92729
 20
-326.551085
 30
0.0
 11
141.92729
 21
-326.551085
 31
0.0
  0
LINE
  8
0
 10
156.92729
 20
-297.932909
 30
0.0
 11
141.92729
 21
-326.551085
 31
0.0
  0
LINE
  8
0
 10
156.92729
 20
-326.551085
 30
0.0
 11
141.92729
 21
-297.932909
 31
0.0
  0
LINE
  8
0
 10
81.42729
 20
-327.449246
 30
0.0
 11
81.42729
 21
-297.034748
 31
0.0
  0
ARC
  8
0
 10
81.92729
 20
-312.241997
 30
0.0
 40
12.5
 50
302.87835
 51
57.12165
  0
LINE
  8
0
 10
88.713004
 20
-301.744184
 30
0.0
 11
64.02729
 21
-285.787508
 31
0.0
  0
LINE
  8
0
 10
88.713004
 20
-322.73981
 30
0.0
 11
64.02729
 21
-338.696486
 31
0.0
  0
LINE
  8
0
 10
-333.858064
 20
-69.017295
 30
0.0
 11
-327.858064
 21
-80.881527
 31
0.0
  0
LINE
  8
0
 10
-327.858064
 20
-69.017295
 30
0.0
 11
-333.858064
 21
-80.881527
 31
0.0
  0
LINE
  8
0
 10
-327.858064
 20
-80.881527
 30
0.0
 11
-333.858064
 21
-80.881527
 31
0.0
  0
LINE
  8
0
 10
-327.858064
 20
-69.017295
 30
0.0
 11
-333.858064
 21
-69.017295
 31
0.0
  0
LINE
  8
0
 10
-333.858064
 20
-63.749411
 30
0.0
 11
-333.858064
 21
-86.149411
 31
0.0
  0
LINE
  8
0
 10
-327.858064
 20
-86.149411
 30
0.0
 11
-333.858064
 21
-86.149411
 31
0.0
  0
LINE
  8
0
 10
-327.858064
 20
-63.749411
 30
0.0
 11
-333.858064
 21
-63.749411
 31
0.0
  0
ARC
  8
0
 10
-366.954703
 20
-74.949411
 30
0.0
 40
8.817906
 50
313.932056
 51
46.067944
  0
LINE
  8
0
 10
-360.836797
 20
-81.299742
 30
0.0
 11
-369.506081
 21
-87.206833
 31
0.0
  0
LINE
  8
0
 10
-360.836797
 20
-68.599081
 30
0.0
 11
-369.506081
 21
-62.69199
 31
0.0
  0
LINE
  8
0
  6
DASHED
 10
-349.858064
 20
-80.949411
 30
0.0
 11
-349.858064
 21
-68.949411
 31
0.0
  0
LINE
  8
0
  6
DASHED
 10
-327.858064
 20
-80.949411
 30
0.0
 11
-349.858064
 21
-80.949411
 31
0.0
  0
LINE
  8
0
  6
DASHED
 10
-327.858064
 20
-68.949411
 30
0.0
 11
-349.858064
 21
-68.949411
 31
0.0
  0
LINE
  8
0
 10
-360.836797
 20
-81.299742
 30
0.0
 11
-360.836797
 21
-68.599081
 31
0.0
  0
LINE
  8
0
 10
-336.358064
 20
-83.649411
 30
0.0
 11
-336.358064
 21
-66.249411
 31
0.0
  0
LINE
  8
0
 10
-333.858064
 20
-86.149411
 30
0.0
 11
-336.358064
 21
-83.649411
 31
0.0
  0
LINE
  8
0
 10
-333.858064
 20
-63.749411
 30
0.0
 11
-336.358064
 21
-66.249411
 31
0.0
  0
LINE
  8
0
 10
-327.858064
 20
-86.149411
 30
0.0
 11
-327.858064
 21
-63.749411
 31
0.0
  0
LINE
  8
0
 10
-336.358064
 20
-83.649411
 30
0.0
 11
-362.588843
 21
-83.649411
 31
0.0
  0
LINE
  8
0
 10
-336.358064
 20
-66.249411
 30
0.0
 11
-362.588843
 21
-66.249411
 31
0.0
  0
ARC
  8
0
 10
-377.858064
 20
-74.949411
 30
0.0
 40
16.0
 50
54.106393
 51
305.893607
  0
LINE
  8
0
 10
-362.588843
 20
-83.649411
 30
0.0
 11
-368.477552
 21
-87.911124
 31
0.0
  0
LINE
  8
0
 10
-362.588843
 20
-66.249411
 30
0.0
 11
-368.477552
 21
-61.987699
 31
0.0
  0
CIRCLE
  8
0
 10
-377.858064
 20
-74.949411
 30
0.0
 40
6.0
  0
CIRCLE
  8
0
 10
-377.858064
 20
-74.949411
 30
0.0
 40
7.694803
  0
CIRCLE
  8
0
 10
-377.858064
 20
-74.949411
 30
0.0
 40
9.5
  0
ARC
  8
0
 10
-377.858064
 20
-74.949411
 30
0.0
 40
14.832397
 50
55.730198
 51
304.269802
  0
CIRCLE
  8
0
 10
-377.858064
 20
-74.949411
 30
0.0
 40
12.0
  0
LINE
  8
0
 10
-352.358064
 20
118.3094
 30
0.0
 11
-347.858064
 21
125.42347
 31
0.0
  0
LINE
  8
0
 10
-352.358064
 20
125.42347
 30
0.0
 11
-347.858064
 21
118.3094
 31
0.0
  0
LINE
  8
0
 10
-347.858064
 20
118.3094
 30
0.0
 11
-352.358064
 21
118.3094
 31
0.0
  0
LINE
  8
0
 10
-347.858064
 20
125.42347
 30
0.0
 11
-352.358064
 21
125.42347
 31
0.0
  0
LINE
  8
0
  6
DASHED
 10
-360.358064
 20
118.866435
 30
0.0
 11
-360.358064
 21
124.866435
 31
0.0
  0
ARC
  8
0
 10
-371.404446
 20
121.866435
 30
0.0
 40
4.746382
 50
311.521507
 51
48.478493
  0
LINE
  8
0
 10
-368.258064
 20
118.312786
 30
0.0
 11
-371.170373
 21
115.332119
 31
0.0
  0
LINE
  8
0
 10
-368.258064
 20
125.420084
 30
0.0
 11
-371.170373
 21
128.400752
 31
0.0
  0
LINE
  8
0
 10
-368.258064
 20
118.312786
 30
0.0
 11
-368.258064
 21
125.420084
 31
0.0
  0
LINE
  8
0
 10
-353.908064
 20
116.866435
 30
0.0
 11
-353.908064
 21
126.866435
 31
0.0
  0
LINE
  8
0
 10
-352.358064
 20
115.316435
 30
0.0
 11
-353.908064
 21
116.866435
 31
0.0
  0
LINE
  8
0
 10
-352.358064
 20
128.416435
 30
0.0
 11
-353.908064
 21
126.866435
 31
0.0
  0
LINE
  8
0
 10
-352.358064
 20
115.316435
 30
0.0
 11
-347.858064
 21
115.316435
 31
0.0
  0
LINE
  8
0
 10
-352.358064
 20
128.416435
 30
0.0
 11
-347.858064
 21
128.416435
 31
0.0
  0
LINE
  8
0
 10
-352.358064
 20
115.316435
 30
0.0
 11
-352.358064
 21
128.416435
 31
0.0
  0
LINE
  8
0
 10
-366.714144
 20
116.866435
 30
0.0
 11
-353.908064
 21
116.866435
 31
0.0
  0
LINE
  8
0
 10
-366.714144
 20
126.866435
 30
0.0
 11
-353.908064
 21
126.866435
 31
0.0
  0
LINE
  8
0
 10
-347.858064
 20
115.316435
 30
0.0
 11
-347.858064
 21
128.416435
 31
0.0
  0
CIRCLE
  8
0
 10
-377.858064
 20
121.866435
 30
0.0
 40
3.0
  0
ARC
  8
0
 10
-377.858064
 20
121.866435
 30
0.0
 40
10.0
 50
59.207877
 51
300.792123
  0
CIRCLE
  8
0
 10
-377.858064
 20
121.866435
 30
0.0
 40
4.55
  0
CIRCLE
  8
0
 10
-377.858064
 20
121.866435
 30
0.0
 40
5.65
  0
ARC
  8
0
 10
-377.858064
 20
121.866435
 30
0.0
 40
9.35
 50
44.335411
 51
315.664602
  0
LINE
  8
0
  6
DASHED
 10
-360.358064
 20
124.866435
 30
0.0
 11
-347.858064
 21
124.866435
 31
0.0
  0
LINE
  8
0
  6
DASHED
 10
-360.358064
 20
118.866435
 30
0.0
 11
-347.858064
 21
118.866435
 31
0.0
  0
LINE
  8
0
 10
-366.714144
 20
126.866435
 30
0.0
 11
-372.738816
 21
130.456738
 31
0.0
  0
LINE
  8
0
 10
-366.714144
 20
116.866435
 30
0.0
 11
-372.738816
 21
113.276132
 31
0.0
  0
CIRCLE
  8
0
 10
-377.858064
 20
121.866435
 30
0.0
 40
7.25
  0
LINE
  8
0
 10
-349.858064
 20
-425.861212
 30
0.0
 11
-355.658064
 21
-421.611212
 31
0.0
  0
LINE
  8
0
 10
-349.858064
 20
-400.861212
 30
0.0
 11
-355.658064
 21
-405.111212
 31
0.0
  0
ARC
  8
0
 10
-377.858064
 20
-413.361212
 30
0.0
 40
23.0
 50
158.979887
 51
201.020113
  0
LINE
  8
0
 10
-399.327519
 20
-421.611212
 30
0.0
 11
-355.658064
 21
-421.611212
 31
0.0
  0
LINE
  8
0
 10
-399.327519
 20
-405.111212
 30
0.0
 11
-355.658064
 21
-405.111212
 31
0.0
  0
LINE
  8
0
  6
DASHED
 10
-338.858064
 20
-422.361212
 30
0.0
 11
-306.658064
 21
-422.361212
 31
0.0
  0
LINE
  8
0
  6
DASHED
 10
-338.858064
 20
-404.361212
 30
0.0
 11
-306.658064
 21
-404.361212
 31
0.0
  0
LINE
  8
0
 10
-349.858064
 20
-400.861212
 30
0.0
 11
-318.458064
 21
-400.861212
 31
0.0
  0
LINE
  8
0
 10
-349.858064
 20
-425.861212
 30
0.0
 11
-318.458064
 21
-425.861212
 31
0.0
  0
LINE
  8
0
 10
-306.858064
 20
-399.861212
 30
0.0
 11
-306.858064
 21
-426.861212
 31
0.0
  0
LINE
  8
0
 10
-315.558064
 20
-399.861212
 30
0.0
 11
-315.558064
 21
-426.861212
 31
0.0
  0
LINE
  8
0
 10
-317.458064
 20
-399.861212
 30
0.0
 11
-318.458064
 21
-400.861212
 31
0.0
  0
LINE
  8
0
 10
-317.458064
 20
-426.861212
 30
0.0
 11
-318.458064
 21
-425.861212
 31
0.0
  0
LINE
  8
0
 10
-318.458064
 20
-400.861212
 30
0.0
 11
-318.458064
 21
-425.861212
 31
0.0
  0
LINE
  8
0
  6
DASHED
 10
-338.858064
 20
-404.361212
 30
0.0
 11
-338.858064
 21
-422.361212
 31
0.0
  0
LINE
  8
0
 10
-355.658064
 20
-405.111212
 30
0.0
 11
-355.658064
 21
-421.611212
 31
0.0
  0
LINE
  8
0
 10
-306.858064
 20
-426.861212
 30
0.0
 11
-317.458064
 21
-426.861212
 31
0.0
  0
LINE
  8
0
 10
-306.858064
 20
-399.861212
 30
0.0
 11
-317.458064
 21
-399.861212
 31
0.0
  0
LINE
  8
0
 10
-355.458064
 20
-311.624007
 30
0.0
 11
-348.858064
 21
-315.124007
 31
0.0
  0
LINE
  8
0
 10
-355.458064
 20
-296.624007
 30
0.0
 11
-348.858064
 21
-293.124007
 31
0.0
  0
LINE
  8
0
  6
DASHED
 10
-341.858064
 20
-312.124007
 30
0.0
 11
-313.858064
 21
-312.124007
 31
0.0
  0
LINE
  8
0
  6
DASHED
 10
-341.858064
 20
-296.124007
 30
0.0
 11
-313.858064
 21
-296.124007
 31
0.0
  0
LINE
  8
0
 10
-348.858064
 20
-293.124007
 30
0.0
 11
-313.858064
 21
-293.124007
 31
0.0
  0
LINE
  8
0
 10
-348.858064
 20
-315.124007
 30
0.0
 11
-313.858064
 21
-315.124007
 31
0.0
  0
LINE
  8
0
 10
-313.858064
 20
-293.124007
 30
0.0
 11
-313.858064
 21
-315.124007
 31
0.0
  0
LINE
  8
0
 10
-320.858064
 20
-293.124007
 30
0.0
 11
-320.858064
 21
-315.124007
 31
0.0
  0
LINE
  8
0
 10
-323.858064
 20
-293.124007
 30
0.0
 11
-323.858064
 21
-315.124007
 31
0.0
  0
LINE
  8
0
  6
DASHED
 10
-341.858064
 20
-296.124007
 30
0.0
 11
-341.858064
 21
-312.124007
 31
0.0
  0
LINE
  8
0
 10
-355.458064
 20
-296.624007
 30
0.0
 11
-355.458064
 21
-311.624007
 31
0.0
  0
ARC
  8
0
 10
-377.858064
 20
-304.124007
 30
0.0
 40
21.0
 50
159.075168
 51
200.924832
  0
LINE
  8
0
 10
-397.473109
 20
-296.624007
 30
0.0
 11
-355.458064
 21
-296.624007
 31
0.0
  0
LINE
  8
0
 10
-397.473109
 20
-311.624007
 30
0.0
 11
-355.458064
 21
-311.624007
 31
0.0
  0
LINE
  8
0
 10
-361.358064
 20
-208.313685
 30
0.0
 11
-355.858064
 21
-211.763685
 31
0.0
  0
LINE
  8
0
 10
-361.358064
 20
-194.813685
 30
0.0
 11
-355.858064
 21
-191.363685
 31
0.0
  0
LINE
  8
0
  6
DASHED
 10
-345.858064
 20
-194.563685
 30
0.0
 11
-345.858064
 21
-208.563685
 31
0.0
  0
LINE
  8
0
 10
-330.458064
 20
-191.363685
 30
0.0
 11
-330.458064
 21
-211.763685
 31
0.0
  0
LINE
  8
0
 10
-320.858064
 20
-190.563685
 30
0.0
 11
-329.658064
 21
-190.563685
 31
0.0
  0
LINE
  8
0
 10
-320.858064
 20
-212.563685
 30
0.0
 11
-329.658064
 21
-212.563685
 31
0.0
  0
LINE
  8
0
 10
-329.658064
 20
-212.563685
 30
0.0
 11
-330.458064
 21
-211.763685
 31
0.0
  0
LINE
  8
0
 10
-329.658064
 20
-190.563685
 30
0.0
 11
-330.458064
 21
-191.363685
 31
0.0
  0
LINE
  8
0
 10
-355.858064
 20
-211.763685
 30
0.0
 11
-330.458064
 21
-211.763685
 31
0.0
  0
LINE
  8
0
 10
-355.858064
 20
-191.363685
 30
0.0
 11
-330.458064
 21
-191.363685
 31
0.0
  0
LINE
  8
0
 10
-328.158064
 20
-190.563685
 30
0.0
 11
-328.158064
 21
-212.563685
 31
0.0
  0
LINE
  8
0
 10
-320.858064
 20
-190.563685
 30
0.0
 11
-320.858064
 21
-212.563685
 31
0.0
  0
LINE
  8
0
  6
DASHED
 10
-345.858064
 20
-194.563685
 30
0.0
 11
-320.858064
 21
-194.563685
 31
0.0
  0
LINE
  8
0
  6
DASHED
 10
-345.858064
 20
-208.563685
 30
0.0
 11
-320.858064
 21
-208.563685
 31
0.0
  0
LINE
  8
0
 10
-361.358064
 20
-194.813685
 30
0.0
 11
-361.358064
 21
-208.313685
 31
0.0
  0
ARC
  8
0
 10
-377.858064
 20
-201.563685
 30
0.0
 40
18.0
 50
157.975687
 51
202.024313
  0
LINE
  8
0
 10
-394.54451
 20
-194.813685
 30
0.0
 11
-361.358064
 21
-194.813685
 31
0.0
  0
LINE
  8
0
 10
-394.54451
 20
-208.313685
 30
0.0
 11
-361.358064
 21
-208.313685
 31
0.0
  0
LINE
  8
0
 10
-439.478577
 20
-421.611212
 30
0.0
 11
-431.012872
 21
-421.611212
 31
0.0
  0
LINE
  8
0
 10
-439.478577
 20
-405.111212
 30
0.0
 11
-431.012872
 21
-405.111212
 31
0.0
  0
CIRCLE
  8
0
 10
-452.482327
 20
-413.361212
 30
0.0
 40
8.2
  0
CIRCLE
  8
0
 10
-452.482327
 20
-413.361212
 30
0.0
 40
9.0
  0
ARC
  8
0
 10
-452.482327
 20
-413.361212
 30
0.0
 40
23.0
 50
158.979887
 51
201.020113
  0
LINE
  8
0
 10
-473.951782
 20
-421.611212
 30
0.0
 11
-465.486076
 21
-421.611212
 31
0.0
  0
LINE
  8
0
 10
-473.951782
 20
-405.111212
 30
0.0
 11
-465.486076
 21
-405.111212
 31
0.0
  0
ARC
  8
0
 10
-452.482327
 20
-413.361212
 30
0.0
 40
15.4
 50
298.762312
 51
61.237688
  0
LINE
  8
0
 10
-445.072199
 20
-426.861212
 30
0.0
 11
-459.892455
 21
-426.861212
 31
0.0
  0
LINE
  8
0
 10
-445.072199
 20
-399.861212
 30
0.0
 11
-459.892455
 21
-399.861212
 31
0.0
  0
ARC
  8
0
 10
-452.482327
 20
-413.361212
 30
0.0
 40
15.4
 50
118.762312
 51
241.237688
  0
ARC
  8
0
 10
-452.482327
 20
-413.361212
 30
0.0
 40
23.0
 50
338.979887
 51
21.020113
  0
ARC
  8
0
 10
-377.858064
 20
-413.361212
 30
0.0
 40
15.875
 50
313.580257
 51
328.688873
  0
ARC
  8
0
 10
-377.858064
 20
-413.361212
 30
0.0
 40
15.875
 50
31.311127
 51
46.419743
  0
ARC
  8
0
 10
-377.858064
 20
-413.361212
 30
0.0
 40
15.875
 50
211.311127
 51
226.419743
  0
ARC
  8
0
 10
-377.858064
 20
-413.361212
 30
0.0
 40
15.875
 50
133.580257
 51
148.688873
  0
LINE
  8
0
 10
-388.801812
 20
-401.861212
 30
0.0
 11
-366.914315
 21
-401.861212
 31
0.0
  0
LINE
  8
0
 10
-388.801812
 20
-424.861212
 30
0.0
 11
-366.914315
 21
-424.861212
 31
0.0
  0
CIRCLE
  8
0
 10
-443.981203
 20
-304.124007
 30
0.0
 40
7.0
  0
CIRCLE
  8
0
 10
-443.981203
 20
-304.124007
 30
0.0
 40
8.0
  0
ARC
  8
0
 10
-443.981203
 20
-304.124007
 30
0.0
 40
13.4
 50
124.82546
 51
235.17454
  0
LINE
  8
0
 10
-432.876699
 20
-311.624007
 30
0.0
 11
-424.366157
 21
-311.624007
 31
0.0
  0
LINE
  8
0
 10
-432.876699
 20
-296.624007
 30
0.0
 11
-424.366157
 21
-296.624007
 31
0.0
  0
ARC
  8
0
 10
-443.981203
 20
-304.124007
 30
0.0
 40
21.0
 50
159.075168
 51
200.924832
  0
LINE
  8
0
 10
-463.596248
 20
-296.624007
 30
0.0
 11
-455.085706
 21
-296.624007
 31
0.0
  0
LINE
  8
0
 10
-463.596248
 20
-311.624007
 30
0.0
 11
-455.085706
 21
-311.624007
 31
0.0
  0
ARC
  8
0
 10
-443.981203
 20
-304.124007
 30
0.0
 40
21.0
 50
339.075168
 51
20.924832
  0
ARC
  8
0
 10
-443.981203
 20
-304.124007
 30
0.0
 40
13.4
 50
304.82546
 51
55.17454
  0
LINE
  8
0
 10
-451.633653
 20
-293.124007
 30
0.0
 11
-436.328752
 21
-293.124007
 31
0.0
  0
LINE
  8
0
 10
-451.633653
 20
-315.124007
 30
0.0
 11
-436.328752
 21
-315.124007
 31
0.0
  0
ARC
  8
0
 10
-436.856954
 20
-201.563685
 30
0.0
 40
12.5
 50
298.357637
 51
61.642363
  0
LINE
  8
0
 10
-426.336141
 20
-208.313685
 30
0.0
 11
-420.170507
 21
-208.313685
 31
0.0
  0
LINE
  8
0
 10
-426.336141
 20
-194.813685
 30
0.0
 11
-420.170507
 21
-194.813685
 31
0.0
  0
CIRCLE
  8
0
 10
-436.856954
 20
-201.563685
 30
0.0
 40
6.0
  0
CIRCLE
  8
0
 10
-436.856954
 20
-201.563685
 30
0.0
 40
7.0
  0
LINE
  8
0
 10
-430.919783
 20
-190.563685
 30
0.0
 11
-442.794125
 21
-190.563685
 31
0.0
  0
LINE
  8
0
 10
-430.919783
 20
-212.563685
 30
0.0
 11
-442.794125
 21
-212.563685
 31
0.0
  0
ARC
  8
0
 10
-436.856954
 20
-201.563685
 30
0.0
 40
12.5
 50
118.357637
 51
241.642363
  0
ARC
  8
0
 10
-436.856954
 20
-201.563685
 30
0.0
 40
18.0
 50
157.975687
 51
202.024313
  0
LINE
  8
0
 10
-453.5434
 20
-194.813685
 30
0.0
 11
-447.377766
 21
-194.813685
 31
0.0
  0
LINE
  8
0
 10
-453.5434
 20
-208.313685
 30
0.0
 11
-447.377766
 21
-208.313685
 31
0.0
  0
ARC
  8
0
 10
-436.856954
 20
-201.563685
 30
0.0
 40
18.0
 50
337.975687
 51
22.024313
  0
ARC
  8
0
 10
-377.858064
 20
-304.124007
 30
0.0
 40
14.3
 50
312.754792
 51
328.367057
  0
ARC
  8
0
 10
-377.858064
 20
-304.124007
 30
0.0
 40
14.3
 50
132.754792
 51
148.367057
  0
ARC
  8
0
 10
-377.858064
 20
-304.124007
 30
0.0
 40
14.3
 50
31.632943
 51
47.245208
  0
ARC
  8
0
 10
-377.858064
 20
-304.124007
 30
0.0
 40
14.3
 50
211.632943
 51
227.245208
  0
LINE
  8
0
 10
-387.565792
 20
-293.624007
 30
0.0
 11
-368.150335
 21
-293.624007
 31
0.0
  0
LINE
  8
0
 10
-387.565792
 20
-314.624007
 30
0.0
 11
-368.150335
 21
-314.624007
 31
0.0
  0
ARC
  8
0
 10
-377.858064
 20
-201.563685
 30
0.0
 40
12.7
 50
212.106594
 51
228.420147
  0
ARC
  8
0
 10
-377.858064
 20
-201.563685
 30
0.0
 40
12.7
 50
32.106594
 51
48.420147
  0
LINE
  8
0
 10
-386.286587
 20
-211.063685
 30
0.0
 11
-369.429541
 21
-211.063685
 31
0.0
  0
ARC
  8
0
 10
-377.858064
 20
-201.563685
 30
0.0
 40
12.7
 50
311.579853
 51
327.893406
  0
ARC
  8
0
 10
-377.858064
 20
-201.563685
 30
0.0
 40
12.7
 50
131.579853
 51
147.893406
  0
LINE
  8
0
 10
-386.286587
 20
-192.063685
 30
0.0
 11
-369.429541
 21
-192.063685
 31
0.0
  0
ARC
  8
0
 10
-255.179549
 20
-413.361212
 30
0.0
 40
15.875
 50
313.580257
 51
328.688873
  0
ARC
  8
0
 10
-255.179549
 20
-413.361212
 30
0.0
 40
15.875
 50
31.311127
 51
46.419743
  0
ARC
  8
0
 10
-255.179549
 20
-413.361212
 30
0.0
 40
15.875
 50
211.311127
 51
226.419743
  0
ARC
  8
0
 10
-255.179549
 20
-413.361212
 30
0.0
 40
15.875
 50
133.580257
 51
148.688873
  0
LINE
  8
0
 10
-266.123297
 20
-401.861212
 30
0.0
 11
-244.235801
 21
-401.861212
 31
0.0
  0
LINE
  8
0
 10
-266.123297
 20
-424.861212
 30
0.0
 11
-244.235801
 21
-424.861212
 31
0.0
  0
ARC
  8
0
 10
-255.179549
 20
-413.361212
 30
0.0
 40
15.4
 50
32.392365
 51
61.237688
  0
ARC
  8
0
 10
-255.179549
 20
-413.361212
 30
0.0
 40
15.4
 50
212.392365
 51
241.237688
  0
ARC
  8
0
 10
-255.179549
 20
-413.361212
 30
0.0
 40
23.0
 50
338.979887
 51
21.020113
  0
ARC
  8
0
 10
-255.179549
 20
-413.361212
 30
0.0
 40
15.4
 50
118.762312
 51
147.607635
  0
LINE
  8
0
 10
-247.769421
 20
-399.861212
 30
0.0
 11
-262.589677
 21
-399.861212
 31
0.0
  0
LINE
  8
0
 10
-247.769421
 20
-426.861212
 30
0.0
 11
-262.589677
 21
-426.861212
 31
0.0
  0
ARC
  8
0
 10
-255.179549
 20
-413.361212
 30
0.0
 40
15.4
 50
298.762312
 51
327.607635
  0
LINE
  8
0
 10
-276.649004
 20
-405.111212
 30
0.0
 11
-233.710094
 21
-405.111212
 31
0.0
  0
LINE
  8
0
 10
-276.649004
 20
-421.611212
 30
0.0
 11
-233.710094
 21
-421.611212
 31
0.0
  0
ARC
  8
0
 10
-255.179549
 20
-413.361212
 30
0.0
 40
23.0
 50
158.979887
 51
201.020113
  0
ARC
  8
0
 10
-267.584037
 20
-304.124007
 30
0.0
 40
14.3
 50
312.754792
 51
328.367057
  0
ARC
  8
0
 10
-267.584037
 20
-304.124007
 30
0.0
 40
14.3
 50
132.754792
 51
148.367057
  0
ARC
  8
0
 10
-267.584037
 20
-304.124007
 30
0.0
 40
14.3
 50
31.632943
 51
47.245208
  0
ARC
  8
0
 10
-267.584037
 20
-304.124007
 30
0.0
 40
14.3
 50
211.632943
 51
227.245208
  0
LINE
  8
0
 10
-277.291766
 20
-293.624007
 30
0.0
 11
-257.876308
 21
-293.624007
 31
0.0
  0
LINE
  8
0
 10
-277.291766
 20
-314.624007
 30
0.0
 11
-257.876308
 21
-314.624007
 31
0.0
  0
ARC
  8
0
 10
-267.584037
 20
-304.124007
 30
0.0
 40
13.4
 50
304.82546
 51
325.964844
  0
ARC
  8
0
 10
-267.584037
 20
-304.124007
 30
0.0
 40
13.4
 50
124.82546
 51
145.964844
  0
ARC
  8
0
 10
-267.584037
 20
-304.124007
 30
0.0
 40
13.4
 50
214.035156
 51
235.17454
  0
LINE
  8
0
 10
-275.236488
 20
-315.124007
 30
0.0
 11
-259.931586
 21
-315.124007
 31
0.0
  0
LINE
  8
0
 10
-275.236488
 20
-293.124007
 30
0.0
 11
-259.931586
 21
-293.124007
 31
0.0
  0
ARC
  8
0
 10
-267.584037
 20
-304.124007
 30
0.0
 40
13.4
 50
34.035156
 51
55.17454
  0
ARC
  8
0
 10
-267.584037
 20
-304.124007
 30
0.0
 40
21.0
 50
339.075168
 51
20.924832
  0
LINE
  8
0
 10
-287.199082
 20
-311.624007
 30
0.0
 11
-247.968992
 21
-311.624007
 31
0.0
  0
LINE
  8
0
 10
-287.199082
 20
-296.624007
 30
0.0
 11
-247.968992
 21
-296.624007
 31
0.0
  0
ARC
  8
0
 10
-267.584037
 20
-304.124007
 30
0.0
 40
21.0
 50
159.075168
 51
200.924832
  0
ARC
  8
0
 10
-281.683944
 20
-201.563685
 30
0.0
 40
12.7
 50
212.106594
 51
228.420147
  0
ARC
  8
0
 10
-281.683944
 20
-201.563685
 30
0.0
 40
12.7
 50
32.106594
 51
48.420147
  0
LINE
  8
0
 10
-290.112467
 20
-211.063685
 30
0.0
 11
-273.255421
 21
-211.063685
 31
0.0
  0
ARC
  8
0
 10
-281.683944
 20
-201.563685
 30
0.0
 40
12.7
 50
311.579853
 51
327.893406
  0
ARC
  8
0
 10
-281.683944
 20
-201.563685
 30
0.0
 40
12.7
 50
131.579853
 51
147.893406
  0
LINE
  8
0
 10
-290.112467
 20
-192.063685
 30
0.0
 11
-273.255421
 21
-192.063685
 31
0.0
  0
ARC
  8
0
 10
-281.683944
 20
-201.563685
 30
0.0
 40
12.5
 50
298.357637
 51
327.316361
  0
ARC
  8
0
 10
-281.683944
 20
-201.563685
 30
0.0
 40
12.5
 50
118.357637
 51
147.316361
  0
ARC
  8
0
 10
-281.683944
 20
-201.563685
 30
0.0
 40
12.5
 50
32.683639
 51
61.642363
  0
ARC
  8
0
 10
-281.683944
 20
-201.563685
 30
0.0
 40
18.0
 50
337.975687
 51
22.024313
  0
LINE
  8
0
 10
-298.37039
 20
-208.313685
 30
0.0
 11
-264.997497
 21
-208.313685
 31
0.0
  0
LINE
  8
0
 10
-298.37039
 20
-194.813685
 30
0.0
 11
-264.997497
 21
-194.813685
 31
0.0
  0
ARC
  8
0
 10
-281.683944
 20
-201.563685
 30
0.0
 40
18.0
 50
157.975687
 51
202.024313
  0
ARC
  8
0
 10
-281.683944
 20
-201.563685
 30
0.0
 40
12.5
 50
212.683639
 51
241.642363
  0
LINE
  8
0
 10
-275.746773
 20
-212.563685
 30
0.0
 11
-287.621115
 21
-212.563685
 31
0.0
  0
LINE
  8
0
 10
-275.746773
 20
-190.563685
 30
0.0
 11
-287.621115
 21
-190.563685
 31
0.0
  0
LINE
  8
0
 10
-341.958064
 20
-38.814985
 30
0.0
 11
-334.858064
 21
-38.814985
 31
0.0
  0
LINE
  8
0
 10
-341.958064
 20
-21.814985
 30
0.0
 11
-334.858064
 21
-21.814985
 31
0.0
  0
LINE
  8
0
 10
-360.358064
 20
-37.814985
 30
0.0
 11
-362.558064
 21
-35.564985
 31
0.0
  0
LINE
  8
0
 10
-360.358064
 20
-22.814985
 30
0.0
 11
-362.558064
 21
-25.064985
 31
0.0
  0
LINE
  8
0
 10
-362.558064
 20
-25.064985
 30
0.0
 11
-362.558064
 21
-35.564985
 31
0.0
  0
LINE
  8
0
  6
DASHED
 10
-354.858064
 20
-25.314985
 30
0.0
 11
-354.858064
 21
-35.314985
 31
0.0
  0
LINE
  8
0
 10
-342.958064
 20
-22.814985
 30
0.0
 11
-342.958064
 21
-37.814985
 31
0.0
  0
LINE
  8
0
 10
-341.958064
 20
-38.814985
 30
0.0
 11
-342.958064
 21
-37.814985
 31
0.0
  0
LINE
  8
0
 10
-341.958064
 20
-21.814985
 30
0.0
 11
-342.958064
 21
-22.814985
 31
0.0
  0
LINE
  8
0
 10
-360.358064
 20
-37.814985
 30
0.0
 11
-342.958064
 21
-37.814985
 31
0.0
  0
LINE
  8
0
 10
-360.358064
 20
-22.814985
 30
0.0
 11
-342.958064
 21
-22.814985
 31
0.0
  0
LINE
  8
0
 10
-341.058064
 20
-21.814985
 30
0.0
 11
-341.058064
 21
-38.814985
 31
0.0
  0
LINE
  8
0
 10
-334.858064
 20
-21.814985
 30
0.0
 11
-334.858064
 21
-38.814985
 31
0.0
  0
LINE
  8
0
  6
DASHED
 10
-354.858064
 20
-25.314985
 30
0.0
 11
-334.858064
 21
-25.314985
 31
0.0
  0
LINE
  8
0
  6
DASHED
 10
-354.858064
 20
-35.314985
 30
0.0
 11
-334.858064
 21
-35.314985
 31
0.0
  0
ARC
  8
0
 10
-377.858064
 20
-30.314985
 30
0.0
 40
14.0
 50
157.975687
 51
202.024313
  0
LINE
  8
0
 10
-390.836411
 20
-25.064985
 30
0.0
 11
-362.558064
 21
-25.064985
 31
0.0
  0
LINE
  8
0
 10
-390.836411
 20
-35.564985
 30
0.0
 11
-362.558064
 21
-35.564985
 31
0.0
  0
ARC
  8
0
 10
-327.318159
 20
100.219585
 30
0.0
 40
6.55
 50
31.015315
 51
57.10789
  0
ARC
  8
0
 10
-327.318159
 20
100.219585
 30
0.0
 40
6.55
 50
211.015315
 51
237.10789
  0
ARC
  8
0
 10
-327.318159
 20
100.219585
 30
0.0
 40
6.55
 50
302.89211
 51
328.984685
  0
LINE
  8
0
 10
-330.875195
 20
94.719585
 30
0.0
 11
-323.761124
 21
94.719585
 31
0.0
  0
LINE
  8
0
 10
-330.875195
 20
105.719585
 30
0.0
 11
-323.761124
 21
105.719585
 31
0.0
  0
ARC
  8
0
 10
-327.318159
 20
100.219585
 30
0.0
 40
6.55
 50
122.89211
 51
148.984685
  0
ARC
  8
0
 10
-327.318159
 20
100.219585
 30
0.0
 40
10.0
 50
160.275366
 51
199.724634
  0
LINE
  8
0
 10
-336.731415
 20
96.844585
 30
0.0
 11
-317.904904
 21
96.844585
 31
0.0
  0
LINE
  8
0
 10
-336.731415
 20
103.594585
 30
0.0
 11
-317.904904
 21
103.594585
 31
0.0
  0
ARC
  8
0
 10
-327.318159
 20
100.219585
 30
0.0
 40
10.0
 50
340.275366
 51
19.724634
  0
LINE
  8
0
 10
-335.558064
 20
-101.495772
 30
0.0
 11
-327.858064
 21
-101.495772
 31
0.0
  0
LINE
  8
0
 10
-335.558064
 20
-120.495772
 30
0.0
 11
-327.858064
 21
-120.495772
 31
0.0
  0
LINE
  8
0
 10
-360.836797
 20
-116.995772
 30
0.0
 11
-358.136797
 21
-119.695772
 31
0.0
  0
LINE
  8
0
 10
-360.836797
 20
-104.995772
 30
0.0
 11
-358.136797
 21
-102.295772
 31
0.0
  0
LINE
  8
0
 10
-360.836797
 20
-116.995772
 30
0.0
 11
-360.836797
 21
-104.995772
 31
0.0
  0
LINE
  8
0
 10
-335.558064
 20
-101.495772
 30
0.0
 11
-336.358064
 21
-102.295772
 31
0.0
  0
LINE
  8
0
 10
-335.558064
 20
-120.495772
 30
0.0
 11
-336.358064
 21
-119.695772
 31
0.0
  0
LINE
  8
0
 10
-336.358064
 20
-119.695772
 30
0.0
 11
-358.136797
 21
-119.695772
 31
0.0
  0
LINE
  8
0
 10
-327.858064
 20
-120.495772
 30
0.0
 11
-327.858064
 21
-101.495772
 31
0.0
  0
LINE
  8
0
 10
-334.058064
 20
-120.495772
 30
0.0
 11
-334.058064
 21
-101.495772
 31
0.0
  0
LINE
  8
0
  6
DASHED
 10
-327.858064
 20
-116.995772
 30
0.0
 11
-349.858064
 21
-116.995772
 31
0.0
  0
LINE
  8
0
  6
DASHED
 10
-349.858064
 20
-116.995772
 30
0.0
 11
-349.858064
 21
-104.995772
 31
0.0
  0
LINE
  8
0
  6
DASHED
 10
-327.858064
 20
-104.995772
 30
0.0
 11
-349.858064
 21
-104.995772
 31
0.0
  0
LINE
  8
0
 10
-336.358064
 20
-119.695772
 30
0.0
 11
-336.358064
 21
-102.295772
 31
0.0
  0
LINE
  8
0
 10
-336.358064
 20
-102.295772
 30
0.0
 11
-358.136797
 21
-102.295772
 31
0.0
  0
LINE
  8
0
 10
-392.690461
 20
-104.995772
 30
0.0
 11
-360.836797
 21
-104.995772
 31
0.0
  0
ARC
  8
0
 10
-377.858064
 20
-110.995772
 30
0.0
 40
16.0
 50
157.975687
 51
202.024313
  0
LINE
  8
0
 10
-392.690461
 20
-116.995772
 30
0.0
 11
-360.836797
 21
-116.995772
 31
0.0
  0
ARC
  8
0
 10
-428.317986
 20
-110.995772
 30
0.0
 40
11.2
 50
301.982027
 51
58.017973
  0
ARC
  8
0
 10
-428.317986
 20
-110.995772
 30
0.0
 40
11.2
 50
121.982027
 51
238.017973
  0
LINE
  8
0
 10
-418.860714
 20
-116.995772
 30
0.0
 11
-413.485589
 21
-116.995772
 31
0.0
  0
LINE
  8
0
 10
-418.860714
 20
-104.995772
 30
0.0
 11
-413.485589
 21
-104.995772
 31
0.0
  0
ARC
  8
0
 10
-428.317986
 20
-110.995772
 30
0.0
 40
16.0
 50
337.975687
 51
22.024313
  0
CIRCLE
  8
0
 10
-428.317986
 20
-110.995772
 30
0.0
 40
6.0
  0
CIRCLE
  8
0
 10
-428.317986
 20
-110.995772
 30
0.0
 40
5.1
  0
LINE
  8
0
 10
-443.150383
 20
-116.995772
 30
0.0
 11
-437.775259
 21
-116.995772
 31
0.0
  0
LINE
  8
0
 10
-443.150383
 20
-104.995772
 30
0.0
 11
-437.775259
 21
-104.995772
 31
0.0
  0
ARC
  8
0
 10
-428.317986
 20
-110.995772
 30
0.0
 40
16.0
 50
157.975687
 51
202.024313
  0
LINE
  8
0
 10
-434.250102
 20
-120.495772
 30
0.0
 11
-422.38587
 21
-120.495772
 31
0.0
  0
LINE
  8
0
 10
-434.250102
 20
-101.495772
 30
0.0
 11
-422.38587
 21
-101.495772
 31
0.0
  0
ARC
  8
0
 10
-377.858064
 20
-110.995772
 30
0.0
 40
11.1
 50
32.720443
 51
46.114017
  0
ARC
  8
0
 10
-377.858064
 20
-110.995772
 30
0.0
 40
11.1
 50
212.720443
 51
226.114017
  0
ARC
  8
0
 10
-377.858064
 20
-110.995772
 30
0.0
 40
11.1
 50
313.885983
 51
327.279557
  0
LINE
  8
0
 10
-385.552867
 20
-118.995772
 30
0.0
 11
-370.16326
 21
-118.995772
 31
0.0
  0
ARC
  8
0
 10
-377.858064
 20
-110.995772
 30
0.0
 40
11.1
 50
133.885983
 51
147.279557
  0
LINE
  8
0
 10
-385.552867
 20
-102.995772
 30
0.0
 11
-370.16326
 21
-102.995772
 31
0.0
  0
LINE
  8
0
 10
-412.599429
 20
-25.064985
 30
0.0
 11
-407.538626
 21
-25.064985
 31
0.0
  0
LINE
  8
0
 10
-412.599429
 20
-35.564985
 30
0.0
 11
-407.538626
 21
-35.564985
 31
0.0
  0
ARC
  8
0
 10
-420.516973
 20
-30.314985
 30
0.0
 40
9.5
 50
116.525352
 51
243.474648
  0
ARC
  8
0
 10
-420.516973
 20
-30.314985
 30
0.0
 40
14.0
 50
337.975687
 51
22.024313
  0
ARC
  8
0
 10
-420.516973
 20
-30.314985
 30
0.0
 40
14.0
 50
157.975687
 51
202.024313
  0
LINE
  8
0
 10
-433.495321
 20
-25.064985
 30
0.0
 11
-428.434517
 21
-25.064985
 31
0.0
  0
LINE
  8
0
 10
-433.495321
 20
-35.564985
 30
0.0
 11
-428.434517
 21
-35.564985
 31
0.0
  0
CIRCLE
  8
0
 10
-420.516973
 20
-30.314985
 30
0.0
 40
5.0
  0
CIRCLE
  8
0
 10
-420.516973
 20
-30.314985
 30
0.0
 40
4.25
  0
LINE
  8
0
 10
-416.274332
 20
-21.814985
 30
0.0
 11
-424.759614
 21
-21.814985
 31
0.0
  0
LINE
  8
0
 10
-416.274332
 20
-38.814985
 30
0.0
 11
-424.759614
 21
-38.814985
 31
0.0
  0
ARC
  8
0
 10
-420.516973
 20
-30.314985
 30
0.0
 40
9.5
 50
296.525352
 51
63.474648
  0
ARC
  8
0
 10
-377.858064
 20
-30.314985
 30
0.0
 40
9.5
 50
132.536898
 51
146.452262
  0
ARC
  8
0
 10
-377.858064
 20
-30.314985
 30
0.0
 40
9.5
 50
312.536898
 51
326.452262
  0
ARC
  8
0
 10
-377.858064
 20
-30.314985
 30
0.0
 40
9.5
 50
213.547738
 51
227.463102
  0
ARC
  8
0
 10
-377.858064
 20
-30.314985
 30
0.0
 40
9.5
 50
33.547738
 51
47.463102
  0
LINE
  8
0
 10
-384.28068
 20
-23.314985
 30
0.0
 11
-371.435447
 21
-23.314985
 31
0.0
  0
LINE
  8
0
 10
-384.28068
 20
-37.314985
 30
0.0
 11
-371.435447
 21
-37.314985
 31
0.0
  0
ARC
  8
0
 10
-413.864949
 20
39.950754
 30
0.0
 40
8.0
 50
305.659088
 51
54.340912
  0
LINE
  8
0
 10
-407.250571
 20
35.450754
 30
0.0
 11
-402.740651
 21
35.450754
 31
0.0
  0
LINE
  8
0
 10
-407.250571
 20
44.450754
 30
0.0
 11
-402.740651
 21
44.450754
 31
0.0
  0
LINE
  8
0
 10
-424.989247
 20
35.450754
 30
0.0
 11
-420.479327
 21
35.450754
 31
0.0
  0
LINE
  8
0
 10
-424.989247
 20
44.450754
 30
0.0
 11
-420.479327
 21
44.450754
 31
0.0
  0
ARC
  8
0
 10
-413.864949
 20
39.950754
 30
0.0
 40
12.0
 50
157.975687
 51
202.024313
  0
ARC
  8
0
 10
-413.864949
 20
39.950754
 30
0.0
 40
12.0
 50
337.975687
 51
22.024313
  0
CIRCLE
  8
0
 10
-413.864949
 20
39.950754
 30
0.0
 40
4.0
  0
CIRCLE
  8
0
 10
-413.864949
 20
39.950754
 30
0.0
 40
3.4
  0
ARC
  8
0
 10
-413.864949
 20
39.950754
 30
0.0
 40
8.0
 50
125.659088
 51
234.340912
  0
LINE
  8
0
 10
-418.528639
 20
46.450754
 30
0.0
 11
-409.20126
 21
46.450754
 31
0.0
  0
LINE
  8
0
 10
-418.528639
 20
33.450754
 30
0.0
 11
-409.20126
 21
33.450754
 31
0.0
  0
LINE
  8
0
 10
-402.180888
 20
96.844585
 30
0.0
 11
-398.381177
 21
96.844585
 31
0.0
  0
LINE
  8
0
 10
-402.180888
 20
103.594585
 30
0.0
 11
-398.381177
 21
103.594585
 31
0.0
  0
ARC
  8
0
 10
-407.794432
 20
100.219585
 30
0.0
 40
6.55
 50
122.89211
 51
237.10789
  0
LINE
  8
0
 10
-411.351467
 20
105.719585
 30
0.0
 11
-404.237397
 21
105.719585
 31
0.0
  0
LINE
  8
0
 10
-411.351467
 20
94.719585
 30
0.0
 11
-404.237397
 21
94.719585
 31
0.0
  0
ARC
  8
0
 10
-407.794432
 20
100.219585
 30
0.0
 40
6.55
 50
302.89211
 51
57.10789
  0
ARC
  8
0
 10
-407.794432
 20
100.219585
 30
0.0
 40
10.0
 50
340.275366
 51
19.724634
  0
LINE
  8
0
 10
-417.207687
 20
103.594585
 30
0.0
 11
-413.407976
 21
103.594585
 31
0.0
  0
LINE
  8
0
 10
-417.207687
 20
96.844585
 30
0.0
 11
-413.407976
 21
96.844585
 31
0.0
  0
ARC
  8
0
 10
-407.794432
 20
100.219585
 30
0.0
 40
10.0
 50
160.275366
 51
199.724634
  0
CIRCLE
  8
0
 10
-407.794432
 20
100.219585
 30
0.0
 40
3.0
  0
CIRCLE
  8
0
 10
-407.794432
 20
100.219585
 30
0.0
 40
2.5
  0
LINE
  8
0
 10
-366.402439
 20
44.450754
 30
0.0
 11
-366.402439
 21
35.450754
 31
0.0
  0
LINE
  8
0
 10
-366.402439
 20
35.450754
 30
0.0
 11
-364.712902
 21
33.750754
 31
0.0
  0
LINE
  8
0
 10
-366.402439
 20
44.450754
 30
0.0
 11
-364.712902
 21
46.150754
 31
0.0
  0
LINE
  8
0
 10
-348.912902
 20
46.450754
 30
0.0
 11
-342.212902
 21
46.450754
 31
0.0
  0
LINE
  8
0
 10
-348.912902
 20
33.450754
 30
0.0
 11
-342.212902
 21
33.450754
 31
0.0
  0
LINE
  8
0
  6
DASHED
 10
-358.212902
 20
35.950754
 30
0.0
 11
-358.212902
 21
43.950754
 31
0.0
  0
LINE
  8
0
 10
-349.212902
 20
46.150754
 30
0.0
 11
-349.212902
 21
33.750754
 31
0.0
  0
LINE
  8
0
 10
-348.912902
 20
33.450754
 30
0.0
 11
-349.212902
 21
33.750754
 31
0.0
  0
LINE
  8
0
 10
-348.912902
 20
46.450754
 30
0.0
 11
-349.212902
 21
46.150754
 31
0.0
  0
LINE
  8
0
 10
-347.412902
 20
33.450754
 30
0.0
 11
-347.412902
 21
46.450754
 31
0.0
  0
LINE
  8
0
 10
-364.712902
 20
33.750754
 30
0.0
 11
-349.212902
 21
33.750754
 31
0.0
  0
LINE
  8
0
 10
-364.712902
 20
46.150754
 30
0.0
 11
-349.212902
 21
46.150754
 31
0.0
  0
LINE
  8
0
 10
-342.212902
 20
33.450754
 30
0.0
 11
-342.212902
 21
46.450754
 31
0.0
  0
LINE
  8
0
  6
DASHED
 10
-358.212902
 20
43.950754
 30
0.0
 11
-342.212902
 21
43.950754
 31
0.0
  0
LINE
  8
0
  6
DASHED
 10
-358.212902
 20
35.950754
 30
0.0
 11
-342.212902
 21
35.950754
 31
0.0
  0
ARC
  8
0
 10
-377.858064
 20
39.950754
 30
0.0
 40
12.0
 50
157.975687
 51
202.024313
  0
LINE
  8
0
 10
-388.982361
 20
44.450754
 30
0.0
 11
-366.402439
 21
44.450754
 31
0.0
  0
LINE
  8
0
 10
-388.982361
 20
35.450754
 30
0.0
 11
-366.402439
 21
35.450754
 31
0.0
  0
ARC
  8
0
 10
-377.858064
 20
39.950754
 30
0.0
 40
7.925
 50
214.59858
 51
229.209009
  0
ARC
  8
0
 10
-377.858064
 20
39.950754
 30
0.0
 40
7.925
 50
34.59858
 51
49.209009
  0
ARC
  8
0
 10
-377.858064
 20
39.950754
 30
0.0
 40
7.925
 50
130.790991
 51
145.40142
  0
LINE
  8
0
 10
-383.035478
 20
33.950754
 30
0.0
 11
-372.680649
 21
33.950754
 31
0.0
  0
LINE
  8
0
 10
-383.035478
 20
45.950754
 30
0.0
 11
-372.680649
 21
45.950754
 31
0.0
  0
ARC
  8
0
 10
-377.858064
 20
39.950754
 30
0.0
 40
7.925
 50
310.790991
 51
325.40142
  0
LINE
  8
0
  6
DASHED
 10
-360.358064
 20
97.219585
 30
0.0
 11
-347.858064
 21
97.219585
 31
0.0
  0
LINE
  8
0
  6
DASHED
 10
-360.358064
 20
97.219585
 30
0.0
 11
-360.358064
 21
103.219585
 31
0.0
  0
LINE
  8
0
  6
DASHED
 10
-360.358064
 20
103.219585
 30
0.0
 11
-347.858064
 21
103.219585
 31
0.0
  0
LINE
  8
0
 10
-353.408064
 20
105.719585
 30
0.0
 11
-353.908064
 21
105.219585
 31
0.0
  0
LINE
  8
0
 10
-353.908064
 20
95.219585
 30
0.0
 11
-353.908064
 21
105.219585
 31
0.0
  0
LINE
  8
0
 10
-353.408064
 20
94.719585
 30
0.0
 11
-353.908064
 21
95.219585
 31
0.0
  0
LINE
  8
0
 10
-347.858064
 20
94.719585
 30
0.0
 11
-347.858064
 21
105.719585
 31
0.0
  0
LINE
  8
0
 10
-352.358064
 20
94.719585
 30
0.0
 11
-352.358064
 21
105.719585
 31
0.0
  0
LINE
  8
0
 10
-353.408064
 20
94.719585
 30
0.0
 11
-347.858064
 21
94.719585
 31
0.0
  0
LINE
  8
0
 10
-353.408064
 20
105.719585
 30
0.0
 11
-347.858064
 21
105.719585
 31
0.0
  0
LINE
  8
0
 10
-368.258064
 20
96.844585
 30
0.0
 11
-366.658064
 21
95.219585
 31
0.0
  0
LINE
  8
0
 10
-368.258064
 20
103.594585
 30
0.0
 11
-366.658064
 21
105.219585
 31
0.0
  0
LINE
  8
0
 10
-368.258064
 20
96.844585
 30
0.0
 11
-368.258064
 21
103.594585
 31
0.0
  0
LINE
  8
0
 10
-366.714144
 20
95.219585
 30
0.0
 11
-353.908064
 21
95.219585
 31
0.0
  0
LINE
  8
0
 10
-366.714144
 20
105.219585
 30
0.0
 11
-353.908064
 21
105.219585
 31
0.0
  0
LINE
  8
0
 10
-387.271319
 20
103.594585
 30
0.0
 11
-368.258064
 21
103.594585
 31
0.0
  0
LINE
  8
0
 10
-387.271319
 20
96.844585
 30
0.0
 11
-368.258064
 21
96.844585
 31
0.0
  0
ARC
  8
0
 10
-377.858064
 20
100.219585
 30
0.0
 40
10.0
 50
160.275366
 51
199.724634
  0
ARC
  8
0
 10
-377.858064
 20
100.219585
 30
0.0
 40
6.35
 50
134.873891
 51
147.893406
  0
LINE
  8
0
 10
-382.338298
 20
104.719585
 30
0.0
 11
-373.377829
 21
104.719585
 31
0.0
  0
LINE
  8
0
 10
-382.338298
 20
95.719585
 30
0.0
 11
-373.377829
 21
95.719585
 31
0.0
  0
ARC
  8
0
 10
-377.858064
 20
100.219585
 30
0.0
 40
6.35
 50
314.873891
 51
327.893406
  0
ARC
  8
0
 10
-377.858064
 20
100.219585
 30
0.0
 40
6.35
 50
32.106594
 51
45.126109
  0
ARC
  8
0
 10
-377.858064
 20
100.219585
 30
0.0
 40
6.35
 50
212.106594
 51
225.126109
  0
ARC
  8
0
 10
-288.249578
 20
-110.995772
 30
0.0
 40
11.2
 50
32.392365
 51
58.017973
  0
ARC
  8
0
 10
-288.249578
 20
-110.995772
 30
0.0
 40
11.2
 50
212.392365
 51
238.017973
  0
ARC
  8
0
 10
-288.249578
 20
-110.995772
 30
0.0
 40
11.2
 50
121.982027
 51
147.607635
  0
ARC
  8
0
 10
-288.249578
 20
-110.995772
 30
0.0
 40
11.2
 50
301.982027
 51
327.607635
  0
ARC
  8
0
 10
-288.249578
 20
-110.995772
 30
0.0
 40
16.0
 50
337.975687
 51
22.024313
  0
LINE
  8
0
 10
-303.081975
 20
-116.995772
 30
0.0
 11
-273.417181
 21
-116.995772
 31
0.0
  0
ARC
  8
0
 10
-288.249578
 20
-110.995772
 30
0.0
 40
16.0
 50
157.975687
 51
202.024313
  0
LINE
  8
0
 10
-303.081975
 20
-104.995772
 30
0.0
 11
-273.417181
 21
-104.995772
 31
0.0
  0
LINE
  8
0
 10
-294.181694
 20
-101.495772
 30
0.0
 11
-282.317462
 21
-101.495772
 31
0.0
  0
LINE
  8
0
 10
-294.181694
 20
-120.495772
 30
0.0
 11
-282.317462
 21
-120.495772
 31
0.0
  0
ARC
  8
0
 10
-288.249578
 20
-110.995772
 30
0.0
 40
11.1
 50
32.720443
 51
46.114017
  0
ARC
  8
0
 10
-288.249578
 20
-110.995772
 30
0.0
 40
11.1
 50
212.720443
 51
226.114017
  0
ARC
  8
0
 10
-288.249578
 20
-110.995772
 30
0.0
 40
11.1
 50
313.885983
 51
327.279557
  0
LINE
  8
0
 10
-295.944381
 20
-118.995772
 30
0.0
 11
-280.554775
 21
-118.995772
 31
0.0
  0
ARC
  8
0
 10
-288.249578
 20
-110.995772
 30
0.0
 40
11.1
 50
133.885983
 51
147.279557
  0
LINE
  8
0
 10
-295.944381
 20
-102.995772
 30
0.0
 11
-280.554775
 21
-102.995772
 31
0.0
  0
ARC
  8
0
 10
-303.547069
 20
-30.314985
 30
0.0
 40
9.5
 50
132.536898
 51
146.452262
  0
ARC
  8
0
 10
-303.547069
 20
-30.314985
 30
0.0
 40
9.5
 50
312.536898
 51
326.452262
  0
ARC
  8
0
 10
-303.547069
 20
-30.314985
 30
0.0
 40
9.5
 50
213.547738
 51
227.463102
  0
ARC
  8
0
 10
-303.547069
 20
-30.314985
 30
0.0
 40
9.5
 50
33.547738
 51
47.463102
  0
LINE
  8
0
 10
-309.969685
 20
-23.314985
 30
0.0
 11
-297.124453
 21
-23.314985
 31
0.0
  0
LINE
  8
0
 10
-309.969685
 20
-37.314985
 30
0.0
 11
-297.124453
 21
-37.314985
 31
0.0
  0
ARC
  8
0
 10
-303.547069
 20
-30.314985
 30
0.0
 40
9.5
 50
213.547738
 51
243.474648
  0
ARC
  8
0
 10
-303.547069
 20
-30.314985
 30
0.0
 40
9.5
 50
33.547738
 51
63.474648
  0
ARC
  8
0
 10
-303.547069
 20
-30.314985
 30
0.0
 40
9.5
 50
296.525352
 51
326.452262
  0
LINE
  8
0
 10
-299.304428
 20
-38.814985
 30
0.0
 11
-307.78971
 21
-38.814985
 31
0.0
  0
LINE
  8
0
 10
-299.304428
 20
-21.814985
 30
0.0
 11
-307.78971
 21
-21.814985
 31
0.0
  0
ARC
  8
0
 10
-303.547069
 20
-30.314985
 30
0.0
 40
9.5
 50
116.525352
 51
146.452262
  0
LINE
  8
0
 10
-316.525416
 20
-35.564985
 30
0.0
 11
-290.568722
 21
-35.564985
 31
0.0
  0
LINE
  8
0
 10
-316.525416
 20
-25.064985
 30
0.0
 11
-290.568722
 21
-25.064985
 31
0.0
  0
ARC
  8
0
 10
-303.547069
 20
-30.314985
 30
0.0
 40
14.0
 50
157.975687
 51
202.024313
  0
ARC
  8
0
 10
-303.547069
 20
-30.314985
 30
0.0
 40
14.0
 50
337.975687
 51
22.024313
  0
ARC
  8
0
 10
-316.014119
 20
39.950754
 30
0.0
 40
8.0
 50
305.659088
 51
325.771134
  0
ARC
  8
0
 10
-316.014119
 20
39.950754
 30
0.0
 40
8.0
 50
125.659088
 51
145.771134
  0
ARC
  8
0
 10
-316.014119
 20
39.950754
 30
0.0
 40
8.0
 50
214.228866
 51
234.340912
  0
LINE
  8
0
 10
-320.677809
 20
33.450754
 30
0.0
 11
-311.35043
 21
33.450754
 31
0.0
  0
LINE
  8
0
 10
-320.677809
 20
46.450754
 30
0.0
 11
-311.35043
 21
46.450754
 31
0.0
  0
ARC
  8
0
 10
-316.014119
 20
39.950754
 30
0.0
 40
8.0
 50
34.228866
 51
54.340912
  0
ARC
  8
0
 10
-316.014119
 20
39.950754
 30
0.0
 40
12.0
 50
337.975687
 51
22.024313
  0
ARC
  8
0
 10
-316.014119
 20
39.950754
 30
0.0
 40
12.0
 50
157.975687
 51
202.024313
  0
LINE
  8
0
 10
-327.138417
 20
44.450754
 30
0.0
 11
-304.889821
 21
44.450754
 31
0.0
  0
LINE
  8
0
 10
-327.138417
 20
35.450754
 30
0.0
 11
-304.889821
 21
35.450754
 31
0.0
  0
ARC
  8
0
 10
-316.014119
 20
39.950754
 30
0.0
 40
7.925
 50
214.59858
 51
229.209009
  0
ARC
  8
0
 10
-316.014119
 20
39.950754
 30
0.0
 40
7.925
 50
34.59858
 51
49.209009
  0
ARC
  8
0
 10
-316.014119
 20
39.950754
 30
0.0
 40
7.925
 50
130.790991
 51
145.40142
  0
LINE
  8
0
 10
-321.191534
 20
33.950754
 30
0.0
 11
-310.836704
 21
33.950754
 31
0.0
  0
LINE
  8
0
 10
-321.191534
 20
45.950754
 30
0.0
 11
-310.836704
 21
45.950754
 31
0.0
  0
ARC
  8
0
 10
-316.014119
 20
39.950754
 30
0.0
 40
7.925
 50
310.790991
 51
325.40142
  0
ARC
  8
0
 10
-327.318159
 20
100.219585
 30
0.0
 40
6.35
 50
134.873891
 51
147.893406
  0
LINE
  8
0
 10
-331.798394
 20
104.719585
 30
0.0
 11
-322.837925
 21
104.719585
 31
0.0
  0
LINE
  8
0
 10
-331.798394
 20
95.719585
 30
0.0
 11
-322.837925
 21
95.719585
 31
0.0
  0
ARC
  8
0
 10
-327.318159
 20
100.219585
 30
0.0
 40
6.35
 50
314.873891
 51
327.893406
  0
ARC
  8
0
 10
-327.318159
 20
100.219585
 30
0.0
 40
6.35
 50
32.106594
 51
45.126109
  0
ARC
  8
0
 10
-327.318159
 20
100.219585
 30
0.0
 40
6.35
 50
212.106594
 51
225.126109
  0
LINE
  8
0
 10
156.92729
 20
-411.843423
 30
0.0
 11
137.42729
 21
-411.843423
 31
0.0
  0
LINE
  8
0
 10
156.92729
 20
-370.843423
 30
0.0
 11
137.42729
 21
-370.843423
 31
0.0
  0
LINE
  8
0
 10
81.42729
 20
-403.843423
 30
0.0
 11
94.42729
 21
-411.343423
 31
0.0
  0
LINE
  8
0
 10
81.42729
 20
-378.843423
 30
0.0
 11
94.42729
 21
-371.343423
 31
0.0
  0
ARC
  8
0
 10
46.92729
 20
-391.343423
 30
0.0
 40
35.0
 50
159.075168
 51
200.924832
  0
LINE
  8
0
 10
14.235548
 20
-378.843423
 30
0.0
 11
81.42729
 21
-378.843423
 31
0.0
  0
LINE
  8
0
 10
14.235548
 20
-403.843423
 30
0.0
 11
81.42729
 21
-403.843423
 31
0.0
  0
LINE
  8
0
  6
DASHED
 10
105.92729
 20
-406.343423
 30
0.0
 11
156.92729
 21
-406.343423
 31
0.0
  0
LINE
  8
0
  6
DASHED
 10
105.92729
 20
-376.343423
 30
0.0
 11
156.92729
 21
-376.343423
 31
0.0
  0
LINE
  8
0
 10
156.92729
 20
-411.843423
 30
0.0
 11
156.92729
 21
-370.843423
 31
0.0
  0
LINE
  8
0
 10
141.92729
 20
-411.843423
 30
0.0
 11
141.92729
 21
-370.843423
 31
0.0
  0
LINE
  8
0
 10
94.42729
 20
-371.343423
 30
0.0
 11
136.92729
 21
-371.343423
 31
0.0
  0
LINE
  8
0
 10
94.42729
 20
-411.343423
 30
0.0
 11
136.92729
 21
-411.343423
 31
0.0
  0
LINE
  8
0
 10
137.42729
 20
-370.843423
 30
0.0
 11
136.92729
 21
-371.343423
 31
0.0
  0
LINE
  8
0
 10
137.42729
 20
-411.843423
 30
0.0
 11
136.92729
 21
-411.343423
 31
0.0
  0
LINE
  8
0
 10
136.92729
 20
-371.343423
 30
0.0
 11
136.92729
 21
-411.343423
 31
0.0
  0
LINE
  8
0
  6
DASHED
 10
105.92729
 20
-406.343423
 30
0.0
 11
105.92729
 21
-376.343423
 31
0.0
  0
LINE
  8
0
 10
81.42729
 20
-403.843423
 30
0.0
 11
81.42729
 21
-378.843423
 31
0.0
  0
LINE
  8
0
 10
85.92729
 20
-232.542784
 30
0.0
 11
75.22729
 21
-226.792784
 31
0.0
  0
LINE
  8
0
 10
85.92729
 20
-199.042784
 30
0.0
 11
75.22729
 21
-204.792784
 31
0.0
  0
LINE
  8
0
 10
126.92729
 20
-233.792784
 30
0.0
 11
140.92729
 21
-233.792784
 31
0.0
  0
LINE
  8
0
 10
126.92729
 20
-197.792784
 30
0.0
 11
140.92729
 21
-197.792784
 31
0.0
  0
ARC
  8
0
 10
46.92729
 20
-215.792784
 30
0.0
 40
30.0
 50
158.489812
 51
201.510188
  0
LINE
  8
0
 10
19.016718
 20
-204.792784
 30
0.0
 11
75.22729
 21
-204.792784
 31
0.0
  0
LINE
  8
0
 10
19.016718
 20
-226.792784
 30
0.0
 11
75.22729
 21
-226.792784
 31
0.0
  0
LINE
  8
0
  6
DASHED
 10
98.92729
 20
-227.792784
 30
0.0
 11
140.92729
 21
-227.792784
 31
0.0
  0
LINE
  8
0
  6
DASHED
 10
98.92729
 20
-203.792784
 30
0.0
 11
140.92729
 21
-203.792784
 31
0.0
  0
LINE
  8
0
 10
140.92729
 20
-233.792784
 30
0.0
 11
140.92729
 21
-197.792784
 31
0.0
  0
LINE
  8
0
 10
85.92729
 20
-199.042784
 30
0.0
 11
125.67729
 21
-199.042784
 31
0.0
  0
LINE
  8
0
 10
85.92729
 20
-232.542784
 30
0.0
 11
125.67729
 21
-232.542784
 31
0.0
  0
LINE
  8
0
 10
129.92729
 20
-233.792784
 30
0.0
 11
129.92729
 21
-197.792784
 31
0.0
  0
LINE
  8
0
 10
126.92729
 20
-197.792784
 30
0.0
 11
125.67729
 21
-199.042784
 31
0.0
  0
LINE
  8
0
 10
126.92729
 20
-233.792784
 30
0.0
 11
125.67729
 21
-232.542784
 31
0.0
  0
LINE
  8
0
 10
125.67729
 20
-199.042784
 30
0.0
 11
125.67729
 21
-232.542784
 31
0.0
  0
LINE
  8
0
  6
DASHED
 10
98.92729
 20
-227.792784
 30
0.0
 11
98.92729
 21
-203.792784
 31
0.0
  0
LINE
  8
0
 10
75.22729
 20
-226.792784
 30
0.0
 11
75.22729
 21
-204.792784
 31
0.0
  0
LINE
  8
0
 10
-46.174835
 20
-411.843423
 30
0.0
 11
-74.793011
 21
-411.843423
 31
0.0
  0
ARC
  8
0
 10
-60.483923
 20
-391.343423
 30
0.0
 40
25.0
 50
304.915206
 51
55.084794
  0
LINE
  8
0
 10
-46.174835
 20
-370.843423
 30
0.0
 11
-74.793011
 21
-370.843423
 31
0.0
  0
ARC
  8
0
 10
-60.483923
 20
-391.343423
 30
0.0
 40
25.0
 50
124.915206
 51
235.084794
  0
CIRCLE
  8
0
 10
-60.483923
 20
-391.343423
 30
0.0
 40
14.0
  0
CIRCLE
  8
0
 10
-60.483923
 20
-391.343423
 30
0.0
 40
15.0
  0
ARC
  8
0
 10
-60.483923
 20
-391.343423
 30
0.0
 40
35.0
 50
339.075168
 51
20.924832
  0
ARC
  8
0
 10
-60.483923
 20
-391.343423
 30
0.0
 40
35.0
 50
159.075168
 51
200.924832
  0
LINE
  8
0
 10
-93.175665
 20
-378.843423
 30
0.0
 11
-82.134558
 21
-378.843423
 31
0.0
  0
LINE
  8
0
 10
-93.175665
 20
-403.843423
 30
0.0
 11
-82.134558
 21
-403.843423
 31
0.0
  0
LINE
  8
0
 10
-38.833288
 20
-378.843423
 30
0.0
 11
-27.792181
 21
-378.843423
 31
0.0
  0
LINE
  8
0
 10
-38.833288
 20
-403.843423
 30
0.0
 11
-27.792181
 21
-403.843423
 31
0.0
  0
ARC
  8
0
 10
46.92729
 20
-391.343423
 30
0.0
 40
25.5
 50
29.35347
 51
46.509642
  0
ARC
  8
0
 10
46.92729
 20
-391.343423
 30
0.0
 40
25.5
 50
209.35347
 51
226.509642
  0
ARC
  8
0
 10
46.92729
 20
-391.343423
 30
0.0
 40
25.5
 50
133.490358
 51
150.64653
  0
ARC
  8
0
 10
46.92729
 20
-391.343423
 30
0.0
 40
25.5
 50
313.490358
 51
330.64653
  0
LINE
  8
0
 10
29.377361
 20
-372.843423
 30
0.0
 11
64.477219
 21
-372.843423
 31
0.0
  0
LINE
  8
0
 10
29.377361
 20
-409.843423
 30
0.0
 11
64.477219
 21
-409.843423
 31
0.0
  0
LINE
  8
0
 10
-57.688432
 20
-233.792784
 30
0.0
 11
-36.055125
 21
-233.792784
 31
0.0
  0
ARC
  8
0
 10
-46.871778
 20
-215.792784
 30
0.0
 40
21.0
 50
301.002719
 51
58.997281
  0
ARC
  8
0
 10
-46.871778
 20
-215.792784
 30
0.0
 40
21.0
 50
121.002719
 51
238.997281
  0
LINE
  8
0
 10
-57.688432
 20
-197.792784
 30
0.0
 11
-36.055125
 21
-197.792784
 31
0.0
  0
CIRCLE
  8
0
 10
-46.871778
 20
-215.792784
 30
0.0
 40
12.0
  0
CIRCLE
  8
0
 10
-46.871778
 20
-215.792784
 30
0.0
 40
11.0
  0
ARC
  8
0
 10
-46.871778
 20
-215.792784
 30
0.0
 40
30.0
 50
158.489812
 51
201.510188
  0
LINE
  8
0
 10
-74.78235
 20
-204.792784
 30
0.0
 11
-64.760322
 21
-204.792784
 31
0.0
  0
LINE
  8
0
 10
-74.78235
 20
-226.792784
 30
0.0
 11
-64.760322
 21
-226.792784
 31
0.0
  0
ARC
  8
0
 10
-46.871778
 20
-215.792784
 30
0.0
 40
30.0
 50
338.489812
 51
21.510188
  0
LINE
  8
0
 10
-28.983235
 20
-204.792784
 30
0.0
 11
-18.961207
 21
-204.792784
 31
0.0
  0
LINE
  8
0
 10
-28.983235
 20
-226.792784
 30
0.0
 11
-18.961207
 21
-226.792784
 31
0.0
  0
ARC
  8
0
 10
46.92729
 20
-215.792784
 30
0.0
 40
21.4
 50
30.931885
 51
46.41057
  0
ARC
  8
0
 10
46.92729
 20
-215.792784
 30
0.0
 40
21.4
 50
210.931885
 51
226.41057
  0
ARC
  8
0
 10
46.92729
 20
-215.792784
 30
0.0
 40
21.4
 50
133.58943
 51
149.068115
  0
ARC
  8
0
 10
46.92729
 20
-215.792784
 30
0.0
 40
21.4
 50
313.58943
 51
329.068115
  0
LINE
  8
0
 10
32.172291
 20
-200.292784
 30
0.0
 11
61.682289
 21
-200.292784
 31
0.0
  0
LINE
  8
0
 10
32.172291
 20
-231.292784
 30
0.0
 11
61.682289
 21
-231.292784
 31
0.0
  0
ARC
  8
0
 10
226.605715
 20
-391.343423
 30
0.0
 40
25.5
 50
29.35347
 51
46.509642
  0
ARC
  8
0
 10
226.605715
 20
-391.343423
 30
0.0
 40
25.5
 50
209.35347
 51
226.509642
  0
ARC
  8
0
 10
226.605715
 20
-391.343423
 30
0.0
 40
25.5
 50
133.490358
 51
150.64653
  0
ARC
  8
0
 10
226.605715
 20
-391.343423
 30
0.0
 40
25.5
 50
313.490358
 51
330.64653
  0
LINE
  8
0
 10
209.055786
 20
-372.843423
 30
0.0
 11
244.155644
 21
-372.843423
 31
0.0
  0
LINE
  8
0
 10
209.055786
 20
-409.843423
 30
0.0
 11
244.155644
 21
-409.843423
 31
0.0
  0
ARC
  8
0
 10
226.605715
 20
-391.343423
 30
0.0
 40
25.0
 50
30.0
 51
55.084794
  0
ARC
  8
0
 10
226.605715
 20
-391.343423
 30
0.0
 40
25.0
 50
210.0
 51
235.084794
  0
ARC
  8
0
 10
226.605715
 20
-391.343423
 30
0.0
 40
25.0
 50
304.915206
 51
330.0
  0
LINE
  8
0
 10
240.914803
 20
-411.843423
 30
0.0
 11
212.296627
 21
-411.843423
 31
0.0
  0
ARC
  8
0
 10
226.605715
 20
-391.343423
 30
0.0
 40
25.0
 50
124.915206
 51
150.0
  0
LINE
  8
0
 10
240.914803
 20
-370.843423
 30
0.0
 11
212.296627
 21
-370.843423
 31
0.0
  0
LINE
  8
0
 10
193.913973
 20
-403.843423
 30
0.0
 11
259.297457
 21
-403.843423
 31
0.0
  0
LINE
  8
0
 10
193.913973
 20
-378.843423
 30
0.0
 11
259.297457
 21
-378.843423
 31
0.0
  0
ARC
  8
0
 10
226.605715
 20
-391.343423
 30
0.0
 40
35.0
 50
159.075168
 51
200.924832
  0
ARC
  8
0
 10
226.605715
 20
-391.343423
 30
0.0
 40
35.0
 50
339.075168
 51
20.924832
  0
ARC
  8
0
 10
208.295914
 20
-215.792784
 30
0.0
 40
21.0
 50
31.588136
 51
58.997281
  0
ARC
  8
0
 10
208.295914
 20
-215.792784
 30
0.0
 40
21.0
 50
211.588136
 51
238.997281
  0
LINE
  8
0
 10
180.385342
 20
-226.792784
 30
0.0
 11
236.206485
 21
-226.792784
 31
0.0
  0
LINE
  8
0
 10
180.385342
 20
-204.792784
 30
0.0
 11
236.206485
 21
-204.792784
 31
0.0
  0
ARC
  8
0
 10
208.295914
 20
-215.792784
 30
0.0
 40
30.0
 50
158.489812
 51
201.510188
  0
ARC
  8
0
 10
208.295914
 20
-215.792784
 30
0.0
 40
30.0
 50
338.489812
 51
21.510188
  0
ARC
  8
0
 10
208.295914
 20
-215.792784
 30
0.0
 40
21.0
 50
301.002719
 51
328.411864
  0
LINE
  8
0
 10
197.47926
 20
-197.792784
 30
0.0
 11
219.112568
 21
-197.792784
 31
0.0
  0
LINE
  8
0
 10
197.47926
 20
-233.792784
 30
0.0
 11
219.112568
 21
-233.792784
 31
0.0
  0
ARC
  8
0
 10
208.295914
 20
-215.792784
 30
0.0
 40
21.0
 50
121.002719
 51
148.411864
  0
ARC
  8
0
 10
208.295914
 20
-215.792784
 30
0.0
 40
21.4
 50
30.931885
 51
46.41057
  0
ARC
  8
0
 10
208.295914
 20
-215.792784
 30
0.0
 40
21.4
 50
210.931885
 51
226.41057
  0
ARC
  8
0
 10
208.295914
 20
-215.792784
 30
0.0
 40
21.4
 50
133.58943
 51
149.068115
  0
ARC
  8
0
 10
208.295914
 20
-215.792784
 30
0.0
 40
21.4
 50
313.58943
 51
329.068115
  0
LINE
  8
0
 10
193.540915
 20
-200.292784
 30
0.0
 11
223.050913
 21
-200.292784
 31
0.0
  0
LINE
  8
0
 10
193.540915
 20
-231.292784
 30
0.0
 11
223.050913
 21
-231.292784
 31
0.0
  0
LINE
  8
0
 10
80.92729
 20
-91.396249
 30
0.0
 11
72.92729
 21
-86.396249
 31
0.0
  0
LINE
  8
0
 10
80.92729
 20
-61.396249
 30
0.0
 11
72.92729
 21
-66.396249
 31
0.0
  0
LINE
  8
0
 10
72.92729
 20
-86.396249
 30
0.0
 11
72.92729
 21
-66.396249
 31
0.0
  0
LINE
  8
0
  6
DASHED
 10
93.92729
 20
-65.396249
 30
0.0
 11
93.92729
 21
-87.396249
 31
0.0
  0
LINE
  8
0
 10
130.92729
 20
-85.683337
 30
0.0
 11
120.92729
 21
-85.683337
 31
0.0
  0
LINE
  8
0
 10
118.42729
 20
-92.396249
 30
0.0
 11
130.92729
 21
-92.396249
 31
0.0
  0
LINE
  8
0
 10
118.42729
 20
-60.396249
 30
0.0
 11
130.92729
 21
-60.396249
 31
0.0
  0
LINE
  8
0
 10
117.42729
 20
-61.396249
 30
0.0
 11
117.42729
 21
-91.396249
 31
0.0
  0
LINE
  8
0
 10
118.42729
 20
-92.396249
 30
0.0
 11
117.42729
 21
-91.396249
 31
0.0
  0
LINE
  8
0
 10
118.42729
 20
-60.396249
 30
0.0
 11
117.42729
 21
-61.396249
 31
0.0
  0
LINE
  8
0
 10
120.92729
 20
-60.396249
 30
0.0
 11
120.92729
 21
-92.396249
 31
0.0
  0
LINE
  8
0
 10
80.92729
 20
-91.396249
 30
0.0
 11
117.42729
 21
-91.396249
 31
0.0
  0
LINE
  8
0
 10
80.92729
 20
-61.396249
 30
0.0
 11
117.42729
 21
-61.396249
 31
0.0
  0
LINE
  8
0
 10
130.92729
 20
-60.396249
 30
0.0
 11
130.92729
 21
-92.396249
 31
0.0
  0
LINE
  8
0
  6
DASHED
 10
93.92729
 20
-65.396249
 30
0.0
 11
130.92729
 21
-65.396249
 31
0.0
  0
LINE
  8
0
  6
DASHED
 10
93.92729
 20
-87.396249
 30
0.0
 11
130.92729
 21
-87.396249
 31
0.0
  0
ARC
  8
0
 10
46.92729
 20
-76.396249
 30
0.0
 40
27.0
 50
158.261539
 51
201.738461
  0
LINE
  8
0
 10
21.847417
 20
-66.396249
 30
0.0
 11
72.92729
 21
-66.396249
 31
0.0
  0
LINE
  8
0
 10
21.847417
 20
-86.396249
 30
0.0
 11
72.92729
 21
-86.396249
 31
0.0
  0
LINE
  8
0
 10
-24.628524
 20
-86.396249
 30
0.0
 11
-15.113034
 21
-86.396249
 31
0.0
  0
LINE
  8
0
 10
-24.628524
 20
-66.396249
 30
0.0
 11
-15.113034
 21
-66.396249
 31
0.0
  0
CIRCLE
  8
0
 10
-40.192906
 20
-76.396249
 30
0.0
 40
11.0
  0
CIRCLE
  8
0
 10
-40.192906
 20
-76.396249
 30
0.0
 40
10.2
  0
ARC
  8
0
 10
-40.192906
 20
-76.396249
 30
0.0
 40
27.0
 50
158.261539
 51
201.738461
  0
LINE
  8
0
 10
-65.272779
 20
-66.396249
 30
0.0
 11
-55.757289
 21
-66.396249
 31
0.0
  0
LINE
  8
0
 10
-65.272779
 20
-86.396249
 30
0.0
 11
-55.757289
 21
-86.396249
 31
0.0
  0
ARC
  8
0
 10
-40.192906
 20
-76.396249
 30
0.0
 40
18.5
 50
120.132722
 51
239.867278
  0
LINE
  8
0
 10
-30.905819
 20
-92.396249
 30
0.0
 11
-49.479994
 21
-92.396249
 31
0.0
  0
LINE
  8
0
 10
-30.905819
 20
-60.396249
 30
0.0
 11
-49.479994
 21
-60.396249
 31
0.0
  0
ARC
  8
0
 10
-40.192906
 20
-76.396249
 30
0.0
 40
27.0
 50
338.261539
 51
21.738461
  0
ARC
  8
0
 10
-40.192906
 20
-76.396249
 30
0.0
 40
18.5
 50
300.132722
 51
59.867278
  0
ARC
  8
0
 10
46.92729
 20
-76.396249
 30
0.0
 40
19.0
 50
31.756864
 51
47.463102
  0
ARC
  8
0
 10
46.92729
 20
-76.396249
 30
0.0
 40
19.0
 50
211.756864
 51
227.463102
  0
ARC
  8
0
 10
46.92729
 20
-76.396249
 30
0.0
 40
19.0
 50
132.536898
 51
148.243136
  0
LINE
  8
0
 10
34.082057
 20
-90.396249
 30
0.0
 11
59.772522
 21
-90.396249
 31
0.0
  0
LINE
  8
0
 10
34.082057
 20
-62.396249
 30
0.0
 11
59.772522
 21
-62.396249
 31
0.0
  0
ARC
  8
0
 10
46.92729
 20
-76.396249
 30
0.0
 40
19.0
 50
312.536898
 51
328.243136
  0
ARC
  8
0
 10
-31.20146
 20
53.037636
 30
0.0
 40
17.0
 50
109.749923
 51
250.250077
  0
ARC
  8
0
 10
-31.20146
 20
53.037636
 30
0.0
 40
17.0
 50
289.749923
 51
70.250077
  0
LINE
  8
0
 10
-36.946023
 20
69.037636
 30
0.0
 11
-25.456898
 21
69.037636
 31
0.0
  0
LINE
  8
0
 10
-36.946023
 20
37.037636
 30
0.0
 11
-25.456898
 21
37.037636
 31
0.0
  0
ARC
  8
0
 10
-31.20146
 20
53.037636
 30
0.0
 40
25.0
 50
158.899804
 51
201.100196
  0
LINE
  8
0
 10
-54.525268
 20
62.037636
 30
0.0
 11
-45.623665
 21
62.037636
 31
0.0
  0
LINE
  8
0
 10
-54.525268
 20
44.037636
 30
0.0
 11
-45.623665
 21
44.037636
 31
0.0
  0
ARC
  8
0
 10
-31.20146
 20
53.037636
 30
0.0
 40
25.0
 50
338.899804
 51
21.100196
  0
CIRCLE
  8
0
 10
-31.20146
 20
53.037636
 30
0.0
 40
10.0
  0
CIRCLE
  8
0
 10
-31.20146
 20
53.037636
 30
0.0
 40
9.2
  0
LINE
  8
0
 10
-16.779255
 20
62.037636
 30
0.0
 11
-7.877653
 21
62.037636
 31
0.0
  0
LINE
  8
0
 10
-16.779255
 20
44.037636
 30
0.0
 11
-7.877653
 21
44.037636
 31
0.0
  0
LINE
  8
0
 10
79.92729
 20
39.287636
 30
0.0
 11
72.72729
 21
44.037636
 31
0.0
  0
LINE
  8
0
 10
79.92729
 20
66.787636
 30
0.0
 11
72.72729
 21
62.037636
 31
0.0
  0
ARC
  8
0
 10
46.92729
 20
53.037636
 30
0.0
 40
25.0
 50
158.899804
 51
201.100196
  0
LINE
  8
0
 10
23.603482
 20
62.037636
 30
0.0
 11
72.72729
 21
62.037636
 31
0.0
  0
LINE
  8
0
 10
23.603482
 20
44.037636
 30
0.0
 11
72.72729
 21
44.037636
 31
0.0
  0
LINE
  8
0
  6
DASHED
 10
90.92729
 20
43.037636
 30
0.0
 11
123.92729
 21
43.037636
 31
0.0
  0
LINE
  8
0
  6
DASHED
 10
90.92729
 20
63.037636
 30
0.0
 11
123.92729
 21
63.037636
 31
0.0
  0
LINE
  8
0
 10
123.92729
 20
69.037636
 30
0.0
 11
123.92729
 21
37.037636
 31
0.0
  0
LINE
  8
0
 10
113.92729
 20
69.037636
 30
0.0
 11
123.92729
 21
69.037636
 31
0.0
  0
LINE
  8
0
 10
113.92729
 20
37.037636
 30
0.0
 11
123.92729
 21
37.037636
 31
0.0
  0
LINE
  8
0
 10
79.92729
 20
66.787636
 30
0.0
 11
111.67729
 21
66.787636
 31
0.0
  0
LINE
  8
0
 10
79.92729
 20
39.287636
 30
0.0
 11
111.67729
 21
39.287636
 31
0.0
  0
LINE
  8
0
 10
114.92729
 20
69.037636
 30
0.0
 11
114.92729
 21
37.037636
 31
0.0
  0
LINE
  8
0
 10
113.92729
 20
69.037636
 30
0.0
 11
111.67729
 21
66.787636
 31
0.0
  0
LINE
  8
0
 10
113.92729
 20
37.037636
 30
0.0
 11
111.67729
 21
39.287636
 31
0.0
  0
LINE
  8
0
 10
111.67729
 20
66.787636
 30
0.0
 11
111.67729
 21
39.287636
 31
0.0
  0
LINE
  8
0
  6
DASHED
 10
90.92729
 20
63.037636
 30
0.0
 11
90.92729
 21
43.037636
 31
0.0
  0
LINE
  8
0
 10
72.72729
 20
62.037636
 30
0.0
 11
72.72729
 21
44.037636
 31
0.0
  0
ARC
  8
0
 10
46.92729
 20
53.037636
 30
0.0
 40
17.5
 50
210.949723
 51
225.584691
  0
ARC
  8
0
 10
46.92729
 20
53.037636
 30
0.0
 40
17.5
 50
30.949723
 51
45.584691
  0
ARC
  8
0
 10
46.92729
 20
53.037636
 30
0.0
 40
17.5
 50
314.415309
 51
329.050277
  0
LINE
  8
0
 10
34.679841
 20
65.537636
 30
0.0
 11
59.174739
 21
65.537636
 31
0.0
  0
LINE
  8
0
 10
34.679841
 20
40.537636
 30
0.0
 11
59.174739
 21
40.537636
 31
0.0
  0
ARC
  8
0
 10
46.92729
 20
53.037636
 30
0.0
 40
17.5
 50
134.415309
 51
149.050277
  0
ARC
  8
0
 10
191.683842
 20
-76.396249
 30
0.0
 40
18.5
 50
212.720443
 51
239.867278
  0
ARC
  8
0
 10
191.683842
 20
-76.396249
 30
0.0
 40
18.5
 50
32.720443
 51
59.867278
  0
ARC
  8
0
 10
191.683842
 20
-76.396249
 30
0.0
 40
18.5
 50
300.132722
 51
327.279557
  0
ARC
  8
0
 10
191.683842
 20
-76.396249
 30
0.0
 40
27.0
 50
338.261539
 51
21.738461
  0
LINE
  8
0
 10
200.970929
 20
-60.396249
 30
0.0
 11
182.396754
 21
-60.396249
 31
0.0
  0
LINE
  8
0
 10
200.970929
 20
-92.396249
 30
0.0
 11
182.396754
 21
-92.396249
 31
0.0
  0
ARC
  8
0
 10
191.683842
 20
-76.396249
 30
0.0
 40
18.5
 50
120.132722
 51
147.279557
  0
LINE
  8
0
 10
166.603969
 20
-86.396249
 30
0.0
 11
216.763714
 21
-86.396249
 31
0.0
  0
LINE
  8
0
 10
166.603969
 20
-66.396249
 30
0.0
 11
216.763714
 21
-66.396249
 31
0.0
  0
ARC
  8
0
 10
191.683842
 20
-76.396249
 30
0.0
 40
27.0
 50
158.261539
 51
201.738461
  0
ARC
  8
0
 10
191.683842
 20
-76.396249
 30
0.0
 40
19.0
 50
31.756864
 51
47.463102
  0
ARC
  8
0
 10
191.683842
 20
-76.396249
 30
0.0
 40
19.0
 50
211.756864
 51
227.463102
  0
ARC
  8
0
 10
191.683842
 20
-76.396249
 30
0.0
 40
19.0
 50
132.536898
 51
148.243136
  0
LINE
  8
0
 10
178.838609
 20
-90.396249
 30
0.0
 11
204.529074
 21
-90.396249
 31
0.0
  0
LINE
  8
0
 10
178.838609
 20
-62.396249
 30
0.0
 11
204.529074
 21
-62.396249
 31
0.0
  0
ARC
  8
0
 10
191.683842
 20
-76.396249
 30
0.0
 40
19.0
 50
312.536898
 51
328.243136
  0
ARC
  8
0
 10
178.893918
 20
53.037636
 30
0.0
 40
17.5
 50
210.949723
 51
225.584691
  0
ARC
  8
0
 10
178.893918
 20
53.037636
 30
0.0
 40
17.5
 50
30.949723
 51
45.584691
  0
ARC
  8
0
 10
178.893918
 20
53.037636
 30
0.0
 40
17.5
 50
314.415309
 51
329.050277
  0
LINE
  8
0
 10
166.646469
 20
65.537636
 30
0.0
 11
191.141367
 21
65.537636
 31
0.0
  0
LINE
  8
0
 10
166.646469
 20
40.537636
 30
0.0
 11
191.141367
 21
40.537636
 31
0.0
  0
ARC
  8
0
 10
178.893918
 20
53.037636
 30
0.0
 40
17.5
 50
134.415309
 51
149.050277
  0
ARC
  8
0
 10
178.893918
 20
53.037636
 30
0.0
 40
17.0
 50
31.965719
 51
70.250077
  0
ARC
  8
0
 10
178.893918
 20
53.037636
 30
0.0
 40
17.0
 50
211.965719
 51
250.250077
  0
LINE
  8
0
 10
173.149355
 20
37.037636
 30
0.0
 11
184.638481
 21
37.037636
 31
0.0
  0
LINE
  8
0
 10
173.149355
 20
69.037636
 30
0.0
 11
184.638481
 21
69.037636
 31
0.0
  0
ARC
  8
0
 10
178.893918
 20
53.037636
 30
0.0
 40
17.0
 50
289.749923
 51
328.034281
  0
ARC
  8
0
 10
178.893918
 20
53.037636
 30
0.0
 40
17.0
 50
109.749923
 51
148.034281
  0
LINE
  8
0
 10
155.57011
 20
44.037636
 30
0.0
 11
202.217725
 21
44.037636
 31
0.0
  0
LINE
  8
0
 10
155.57011
 20
62.037636
 30
0.0
 11
202.217725
 21
62.037636
 31
0.0
  0
ARC
  8
0
 10
178.893918
 20
53.037636
 30
0.0
 40
25.0
 50
158.899804
 51
201.100196
  0
ARC
  8
0
 10
178.893918
 20
53.037636
 30
0.0
 40
25.0
 50
338.899804
 51
21.100196
  0
ENDSEC
  0
EOF
