  0
SECTION
  2
HEADER
  9
$ACADVER
  1
AC1009
  9
$INSBASE
 10
0.0
 20
0.0
 30
0.0
  9
$EXTMIN
 10
-503.222732
 20
-322.841544
 30
0.0
  9
$EXTMAX
 10
141.58423
 20
207.215908
 30
0.0
  9
$LIMMIN
 10
0.0
 20
0.0
  9
$LIMMAX
 10
12.0
 20
9.0
  9
$ORTHOMODE
 70
     1
  9
$REGENMODE
 70
     1
  9
$FILLMODE
 70
     1
  9
$QTEXTMODE
 70
     0
  9
$MIRRTEXT
 70
     1
  9
$DRAGMODE
 70
     2
  9
$LTSCALE
 40
4.0
  9
$OSMODE
 70
     0
  9
$ATTMODE
 70
     1
  9
$TEXTSIZE
 40
10.647957
  9
$TRACEWID
 40
0.05
  9
$TEXTSTYLE
  7
STANDARD
  9
$CLAYER
  8
0
  9
$CELTYPE
  6
BYLAYER
  9
$CECOLOR
 62
   256
  9
$DIMSCALE
 40
1.0
  9
$DIMASZ
 40
2.5
  9
$DIMEXO
 40
0.0
  9
$DIMDLI
 40
5.0
  9
$DIMRND
 40
0.0
  9
$DIMDLE
 40
0.0
  9
$DIMEXE
 40
1.0
  9
$DIMTP
 40
0.0
  9
$DIMTM
 40
0.0
  9
$DIMTXT
 40
2.5
  9
$DIMCEN
 40
0.09
  9
$DIMTSZ
 40
0.0
  9
$DIMTOL
 70
     0
  9
$DIMLIM
 70
     0
  9
$DIMTIH
 70
     0
  9
$DIMTOH
 70
     0
  9
$DIMSE1
 70
     0
  9
$DIMSE2
 70
     0
  9
$DIMTAD
 70
     1
  9
$DIMZIN
 70
     0
  9
$DIMBLK
  1

  9
$DIMASO
 70
     0
  9
$DIMSHO
 70
     0
  9
$DIMPOST
  1

  9
$DIMAPOST
  1

  9
$DIMALT
 70
     0
  9
$DIMALTD
 70
     2
  9
$DIMALTF
 40
25.4
  9
$DIMLFAC
 40
1.0
  9
$DIMTOFL
 70
     1
  9
$DIMTVP
 40
0.0
  9
$DIMTIX
 70
     0
  9
$DIMSOXD
 70
     0
  9
$DIMSAH
 70
     0
  9
$DIMBLK1
  1

  9
$DIMBLK2
  1

  9
$DIMSTYLE
  2
*UNNAMED
  9
$DIMCLRD
 70
     0
  9
$DIMCLRE
 70
     0
  9
$DIMCLRT
 70
     0
  9
$DIMTFAC
 40
1.0
  9
$DIMGAP
 40
0.09
  9
$LUNITS
 70
     2
  9
$LUPREC
 70
     4
  9
$SKETCHINC
 40
0.1
  9
$FILLETRAD
 40
5.0
  9
$AUNITS
 70
     0
  9
$AUPREC
 70
     0
  9
$MENU
  1
wiberger
  9
$ELEVATION
 40
0.0
  9
$PELEVATION
 40
0.0
  9
$THICKNESS
 40
0.0
  9
$LIMCHECK
 70
     0
  9
$BLIPMODE
 70
     1
  9
$CHAMFERA
 40
1.5
  9
$CHAMFERB
 40
1.5
  9
$SKPOLY
 70
     0
  9
$TDCREATE
 40
2450192.623468518
  9
$TDUPDATE
 40
2450219.489304745
  9
$TDINDWG
 40
0.0233997685
  9
$TDUSRTIMER
 40
0.0233997685
  9
$USRTIMER
 70
     1
  9
$ANGBASE
 50
0.0
  9
$ANGDIR
 70
     0
  9
$PDMODE
 70
     0
  9
$PDSIZE
 40
0.0
  9
$PLINEWID
 40
0.0
  9
$COORDS
 70
     0
  9
$SPLFRAME
 70
     0
  9
$SPLINETYPE
 70
     6
  9
$SPLINESEGS
 70
     8
  9
$ATTDIA
 70
     0
  9
$ATTREQ
 70
     1
  9
$HANDLING
 70
     0
  9
$HANDSEED
  5
0
  9
$SURFTAB1
 70
     6
  9
$SURFTAB2
 70
     6
  9
$SURFTYPE
 70
     6
  9
$SURFU
 70
     6
  9
$SURFV
 70
     6
  9
$UCSNAME
  2

  9
$UCSORG
 10
0.0
 20
0.0
 30
0.0
  9
$UCSXDIR
 10
1.0
 20
0.0
 30
0.0
  9
$UCSYDIR
 10
0.0
 20
1.0
 30
0.0
  9
$PUCSNAME
  2

  9
$PUCSORG
 10
0.0
 20
0.0
 30
0.0
  9
$PUCSXDIR
 10
1.0
 20
0.0
 30
0.0
  9
$PUCSYDIR
 10
0.0
 20
1.0
 30
0.0
  9
$USERI1
 70
     0
  9
$USERI2
 70
     0
  9
$USERI3
 70
     0
  9
$USERI4
 70
     0
  9
$USERI5
 70
     0
  9
$USERR1
 40
0.0
  9
$USERR2
 40
0.0
  9
$USERR3
 40
0.0
  9
$USERR4
 40
0.0
  9
$USERR5
 40
0.0
  9
$WORLDVIEW
 70
     1
  9
$SHADEDGE
 70
     3
  9
$SHADEDIF
 70
    70
  9
$TILEMODE
 70
     1
  9
$MAXACTVP
 70
    16
  9
$PINSBASE
 10
0.0
 20
0.0
 30
0.0
  9
$PLIMCHECK
 70
     0
  9
$PEXTMIN
 10
1.000000E+20
 20
1.000000E+20
 30
1.000000E+20
  9
$PEXTMAX
 10
-1.000000E+20
 20
-1.000000E+20
 30
-1.000000E+20
  9
$PLIMMIN
 10
0.0
 20
0.0
  9
$PLIMMAX
 10
12.0
 20
9.0
  9
$UNITMODE
 70
     0
  9
$VISRETAIN
 70
     0
  9
$PLINEGEN
 70
     0
  9
$PSLTSCALE
 70
     0
  9
$TREEDEPTH
 70
  3020
  9
$DWGCODEPAGE
  3
undefined
  0
ENDSEC
  0
SECTION
  2
TABLES
  0
TABLE
  2
VPORT
 70
     2
  0
VPORT
  2
*ACTIVE
 70
     0
 10
0.0
 20
0.0
 11
1.0
 21
1.0
 12
-67.71971
 22
-57.812818
 13
0.0
 23
0.0
 14
1.0
 24
1.0
 15
0.0
 25
0.0
 16
0.0
 26
0.0
 36
1.0
 17
0.0
 27
0.0
 37
0.0
 40
588.952724
 41
1.767507
 42
50.0
 43
0.0
 44
0.0
 50
0.0
 51
0.0
 71
     0
 72
     0
 73
     1
 74
     0
 75
     0
 76
     0
 77
     0
 78
     0
  0
ENDTAB
  0
TABLE
  2
LTYPE
 70
     4
  0
LTYPE
  2
CONTINUOUS
 70
    64
  3
Solid line
 72
    65
 73
     0
 40
0.0
  0
LTYPE
  2
DASHED
 70
     0
  3
__ __ __ __ __ __ __ __ __ __ __ __ __ __ __
 72
    65
 73
     2
 40
0.75
 49
0.5
 49
-0.25
  0
LTYPE
  2
HIDDEN
 70
     0
  3
_ _ _ _ _ _ _ _ _ _ _ _ _ _ _ _ _ _ _ _ _ _ _
 72
    65
 73
     2
 40
0.375
 49
0.25
 49
-0.125
  0
LTYPE
  2
CENTER
 70
     0
  3
____ _ ____ _ ____ _ ____ _ ____ _ ____ _ ____
 72
    65
 73
     4
 40
2.0
 49
1.25
 49
-0.25
 49
0.25
 49
-0.25
  0
ENDTAB
  0
TABLE
  2
LAYER
 70
     1
  0
LAYER
  2
0
 70
    64
 62
     7
  6
CONTINUOUS
  0
ENDTAB
  0
TABLE
  2
STYLE
 70
     1
  0
STYLE
  2
STANDARD
 70
     0
 40
0.0
 41
1.0
 50
0.0
 71
     0
 42
10.647957
  3
txt
  4

  0
ENDTAB
  0
TABLE
  2
VIEW
 70
     0
  0
ENDTAB
  0
TABLE
  2
UCS
 70
     0
  0
ENDTAB
  0
TABLE
  2
APPID
 70
     1
  0
APPID
  2
ACAD
 70
    64
  0
ENDTAB
  0
TABLE
  2
DIMSTYLE
 70
     0
  0
ENDTAB
  0
ENDSEC
  0
SECTION
  2
BLOCKS
  0
ENDSEC
  0
SECTION
  2
ENTITIES
  0
CIRCLE
  8
0
 10
-406.58289
 20
146.723207
 30
0.0
 40
4.0
  0
ARC
  8
0
 10
-406.58289
 20
146.723207
 30
0.0
 40
12.0
 50
52.882447
 51
307.117553
  0
CIRCLE
  8
0
 10
-406.58289
 20
146.723207
 30
0.0
 40
5.25
  0
CIRCLE
  8
0
 10
-406.58289
 20
146.723207
 30
0.0
 40
6.75
  0
ARC
  8
0
 10
-406.58289
 20
146.723207
 30
0.0
 40
11.0
 50
38.499957
 51
321.500061
  0
CIRCLE
  8
0
 10
-406.58289
 20
146.723207
 30
0.0
 40
9.0
  0
LINE
  8
0
 10
-391.98289
 20
150.723207
 30
0.0
 11
-365.18289
 21
150.723207
 31
0.0
  0
LINE
  8
0
 10
-391.98289
 20
142.723207
 30
0.0
 11
-365.18289
 21
142.723207
 31
0.0
  0
LINE
  8
0
 10
-364.58289
 20
143.323207
 30
0.0
 11
-364.58289
 21
150.123207
 31
0.0
  0
LINE
  8
0
 10
-391.190052
 20
150.123207
 30
0.0
 11
-364.58289
 21
150.123207
 31
0.0
  0
LINE
  8
0
 10
-391.190052
 20
143.323207
 30
0.0
 11
-364.58289
 21
143.323207
 31
0.0
  0
LINE
  8
0
 10
-364.58289
 20
150.123207
 30
0.0
 11
-365.18289
 21
150.723207
 31
0.0
  0
LINE
  8
0
 10
-364.58289
 20
143.323207
 30
0.0
 11
-365.18289
 21
142.723207
 31
0.0
  0
LINE
  8
0
 10
-391.190052
 20
150.123207
 30
0.0
 11
-399.341462
 21
156.291996
 31
0.0
  0
LINE
  8
0
 10
-391.190052
 20
143.323207
 30
0.0
 11
-399.341462
 21
137.154418
 31
0.0
  0
LINE
  8
0
 10
-391.190052
 20
150.123207
 30
0.0
 11
-391.190052
 21
143.323207
 31
0.0
  0
ARC
  8
0
 10
-395.08289
 20
146.723207
 30
0.0
 40
2.0
 50
321.50005
 51
38.49995
  0
LINE
  8
0
 10
-393.517672
 20
147.968235
 30
0.0
 11
-397.974194
 21
153.570861
 31
0.0
  0
LINE
  8
0
 10
-393.517672
 20
145.478179
 30
0.0
 11
-397.974194
 21
139.875553
 31
0.0
  0
CIRCLE
  8
0
 10
-406.58289
 20
86.511766
 30
0.0
 40
5.0
  0
ARC
  8
0
 10
-406.58289
 20
86.511766
 30
0.0
 40
14.0
 50
56.630657
 51
303.369343
  0
CIRCLE
  8
0
 10
-406.58289
 20
86.511766
 30
0.0
 40
6.422616
  0
CIRCLE
  8
0
 10
-406.58289
 20
86.511766
 30
0.0
 40
8.5
  0
ARC
  8
0
 10
-406.58289
 20
86.511766
 30
0.0
 40
12.8
 50
50.357068
 51
309.642932
  0
LINE
  8
0
 10
-358.58289
 20
90.761766
 30
0.0
 11
-358.58289
 21
82.261766
 31
0.0
  0
LINE
  8
0
 10
-388.72165
 20
91.511766
 30
0.0
 11
-359.33289
 21
91.511766
 31
0.0
  0
LINE
  8
0
 10
-388.72165
 20
81.511766
 30
0.0
 11
-359.33289
 21
81.511766
 31
0.0
  0
LINE
  8
0
 10
-387.58289
 20
90.761766
 30
0.0
 11
-358.58289
 21
90.761766
 31
0.0
  0
LINE
  8
0
 10
-387.58289
 20
82.261766
 30
0.0
 11
-358.58289
 21
82.261766
 31
0.0
  0
LINE
  8
0
 10
-358.58289
 20
90.761766
 30
0.0
 11
-359.33289
 21
91.511766
 31
0.0
  0
LINE
  8
0
 10
-358.58289
 20
82.261766
 30
0.0
 11
-359.33289
 21
81.511766
 31
0.0
  0
LINE
  8
0
 10
-387.58289
 20
90.761766
 30
0.0
 11
-387.58289
 21
82.261766
 31
0.0
  0
LINE
  8
0
 10
-387.58289
 20
90.761766
 30
0.0
 11
-398.882414
 21
98.203758
 31
0.0
  0
LINE
  8
0
 10
-387.58289
 20
82.261766
 30
0.0
 11
-398.882414
 21
74.819774
 31
0.0
  0
CIRCLE
  8
0
 10
-406.58289
 20
86.511766
 30
0.0
 40
10.25
  0
CIRCLE
  8
0
 10
-406.58289
 20
-67.703204
 30
0.0
 40
8.428523
  0
ARC
  8
0
 10
-406.58289
 20
-67.703204
 30
0.0
 40
18.0
 50
53.130102
 51
306.869898
  0
CIRCLE
  8
0
 10
-406.58289
 20
-67.703204
 30
0.0
 40
7.0
  0
LINE
  8
0
 10
-346.58289
 20
-61.703204
 30
0.0
 11
-346.58289
 21
-73.703204
 31
0.0
  0
LINE
  8
0
 10
-385.916223
 20
-60.703204
 30
0.0
 11
-347.58289
 21
-60.703204
 31
0.0
  0
LINE
  8
0
 10
-385.916223
 20
-74.703204
 30
0.0
 11
-347.58289
 21
-74.703204
 31
0.0
  0
LINE
  8
0
 10
-384.58289
 20
-61.703204
 30
0.0
 11
-346.58289
 21
-61.703204
 31
0.0
  0
LINE
  8
0
 10
-384.58289
 20
-73.703204
 30
0.0
 11
-346.58289
 21
-73.703204
 31
0.0
  0
LINE
  8
0
 10
-346.58289
 20
-61.703204
 30
0.0
 11
-347.58289
 21
-60.703204
 31
0.0
  0
LINE
  8
0
 10
-346.58289
 20
-73.703204
 30
0.0
 11
-347.58289
 21
-74.703204
 31
0.0
  0
LINE
  8
0
 10
-384.58289
 20
-61.703204
 30
0.0
 11
-384.58289
 21
-73.703204
 31
0.0
  0
LINE
  8
0
 10
-384.58289
 20
-73.703204
 30
0.0
 11
-395.78289
 21
-82.103204
 31
0.0
  0
LINE
  8
0
 10
-384.58289
 20
-61.703204
 30
0.0
 11
-395.78289
 21
-53.303204
 31
0.0
  0
CIRCLE
  8
0
 10
-406.58289
 20
-67.703204
 30
0.0
 40
11.3
  0
CIRCLE
  8
0
 10
-406.58289
 20
-67.703204
 30
0.0
 40
13.7
  0
ARC
  8
0
 10
-406.58289
 20
-67.703204
 30
0.0
 40
16.25
 50
46.021974
 51
313.978023
  0
CIRCLE
  8
0
 10
-406.58289
 20
-162.480078
 30
0.0
 40
8.0
  0
CIRCLE
  8
0
 10
-406.58289
 20
-162.480078
 30
0.0
 40
9.707729
  0
CIRCLE
  8
0
 10
-406.58289
 20
-162.480078
 30
0.0
 40
12.175385
  0
ARC
  8
0
 10
-406.58289
 20
-162.480078
 30
0.0
 40
21.0
 50
47.36132
 51
312.638674
  0
CIRCLE
  8
0
 10
-406.58289
 20
-162.480078
 30
0.0
 40
15.5
  0
ARC
  8
0
 10
-406.58289
 20
-162.480078
 30
0.0
 40
18.75
 50
36.458925
 51
323.541075
  0
LINE
  8
0
 10
-340.58289
 20
-155.480078
 30
0.0
 11
-340.58289
 21
-169.480078
 31
0.0
  0
LINE
  8
0
 10
-384.26891
 20
-154.480078
 30
0.0
 11
-341.58289
 21
-154.480078
 31
0.0
  0
LINE
  8
0
 10
-384.26891
 20
-170.480078
 30
0.0
 11
-341.58289
 21
-170.480078
 31
0.0
  0
LINE
  8
0
 10
-383.18289
 20
-155.480078
 30
0.0
 11
-340.58289
 21
-155.480078
 31
0.0
  0
LINE
  8
0
 10
-383.18289
 20
-169.480078
 30
0.0
 11
-340.58289
 21
-169.480078
 31
0.0
  0
LINE
  8
0
 10
-340.58289
 20
-155.480078
 30
0.0
 11
-341.58289
 21
-154.480078
 31
0.0
  0
LINE
  8
0
 10
-340.58289
 20
-169.480078
 30
0.0
 11
-341.58289
 21
-170.480078
 31
0.0
  0
LINE
  8
0
 10
-383.18289
 20
-155.480078
 30
0.0
 11
-383.18289
 21
-169.480078
 31
0.0
  0
LINE
  8
0
 10
-383.18289
 20
-155.480078
 30
0.0
 11
-392.358065
 21
-147.031636
 31
0.0
  0
LINE
  8
0
 10
-383.18289
 20
-169.480078
 30
0.0
 11
-392.358065
 21
-177.92852
 31
0.0
  0
ARC
  8
0
 10
-392.595277
 20
-162.480078
 30
0.0
 40
7.5
 50
323.541075
 51
36.458925
  0
LINE
  8
0
 10
-386.563154
 20
-158.02323
 30
0.0
 11
-391.502582
 21
-151.337959
 31
0.0
  0
LINE
  8
0
 10
-386.563154
 20
-166.936926
 30
0.0
 11
-391.502582
 21
-173.622197
 31
0.0
  0
ARC
  8
0
 10
-390.381441
 20
-67.703204
 30
0.0
 40
5.0
 50
313.978017
 51
46.021983
  0
LINE
  8
0
 10
-395.299177
 20
-56.009602
 30
0.0
 11
-386.909529
 21
-64.105173
 31
0.0
  0
LINE
  8
0
 10
-395.299177
 20
-79.396806
 30
0.0
 11
-386.909529
 21
-71.301235
 31
0.0
  0
ARC
  8
0
 10
-391.222416
 20
86.511766
 30
0.0
 40
3.0
 50
309.642872
 51
50.357119
  0
LINE
  8
0
 10
-389.308413
 20
88.821873
 30
0.0
 11
-398.416475
 21
96.368219
 31
0.0
  0
LINE
  8
0
 10
-398.416475
 20
76.655313
 30
0.0
 11
-389.308413
 21
84.20166
 31
0.0
  0
CIRCLE
  8
0
 10
-407.444485
 20
-265.641347
 30
0.0
 40
9.0
  0
LINE
  8
0
 10
-335.444485
 20
-257.441347
 30
0.0
 11
-335.444485
 21
-273.841347
 31
0.0
  0
CIRCLE
  8
0
 10
-407.444485
 20
-265.641347
 30
0.0
 40
13.562932
  0
CIRCLE
  8
0
 10
-407.444485
 20
-265.641347
 30
0.0
 40
10.943748
  0
ARC
  8
0
 10
-407.444485
 20
-265.641347
 30
0.0
 40
23.0
 50
47.21174
 51
312.78826
  0
ARC
  8
0
 10
-407.444485
 20
-265.641347
 30
0.0
 40
20.9
 50
37.150854
 51
322.849146
  0
CIRCLE
  8
0
 10
-407.444485
 20
-265.641347
 30
0.0
 40
17.0
  0
LINE
  8
0
 10
-383.308761
 20
-256.641347
 30
0.0
 11
-336.244485
 21
-256.641347
 31
0.0
  0
LINE
  8
0
 10
-383.308761
 20
-274.641347
 30
0.0
 11
-336.244485
 21
-274.641347
 31
0.0
  0
LINE
  8
0
 10
-382.444485
 20
-257.441347
 30
0.0
 11
-335.444485
 21
-257.441347
 31
0.0
  0
LINE
  8
0
 10
-382.444485
 20
-273.841347
 30
0.0
 11
-335.444485
 21
-273.841347
 31
0.0
  0
LINE
  8
0
 10
-335.444485
 20
-257.441347
 30
0.0
 11
-336.244485
 21
-256.641347
 31
0.0
  0
LINE
  8
0
 10
-335.444485
 20
-273.841347
 30
0.0
 11
-336.244485
 21
-274.641347
 31
0.0
  0
LINE
  8
0
 10
-382.444485
 20
-257.441347
 30
0.0
 11
-382.444485
 21
-273.841347
 31
0.0
  0
LINE
  8
0
 10
-382.444485
 20
-257.441347
 30
0.0
 11
-391.820793
 21
-248.762358
 31
0.0
  0
LINE
  8
0
 10
-382.444485
 20
-273.841347
 30
0.0
 11
-391.820793
 21
-282.520335
 31
0.0
  0
ARC
  8
0
 10
-390.005138
 20
-265.641347
 30
0.0
 40
7.0
 50
322.849146
 51
37.150854
  0
LINE
  8
0
 10
-390.786177
 20
-253.019509
 30
0.0
 11
-384.425801
 21
-261.413937
 31
0.0
  0
LINE
  8
0
 10
-390.786177
 20
-278.263184
 30
0.0
 11
-384.425801
 21
-269.868756
 31
0.0
  0
CIRCLE
  8
0
 10
-75.007518
 20
182.215908
 30
0.0
 40
10.0
  0
LINE
  8
0
 10
2.992482
 20
191.415908
 30
0.0
 11
2.992482
 21
173.015908
 31
0.0
  0
CIRCLE
  8
0
 10
-75.007518
 20
182.215908
 30
0.0
 40
15.008331
  0
CIRCLE
  8
0
 10
-75.007518
 20
182.215908
 30
0.0
 40
12.247449
  0
ARC
  8
0
 10
-75.007518
 20
182.215908
 30
0.0
 40
25.0
 50
50.167995
 51
309.832005
  0
LINE
  8
0
 10
-47.966618
 20
192.215908
 30
0.0
 11
2.192482
 21
192.215908
 31
0.0
  0
LINE
  8
0
 10
-47.966618
 20
172.215908
 30
0.0
 11
2.192482
 21
172.215908
 31
0.0
  0
LINE
  8
0
 10
-47.007518
 20
191.415908
 30
0.0
 11
2.992482
 21
191.415908
 31
0.0
  0
LINE
  8
0
 10
-47.007518
 20
173.015908
 30
0.0
 11
2.992482
 21
173.015908
 31
0.0
  0
LINE
  8
0
 10
2.992482
 20
191.415908
 30
0.0
 11
2.192482
 21
192.215908
 31
0.0
  0
LINE
  8
0
 10
2.992482
 20
173.015908
 30
0.0
 11
2.192482
 21
172.215908
 31
0.0
  0
LINE
  8
0
 10
-47.007518
 20
191.415908
 30
0.0
 11
-47.007518
 21
173.015908
 31
0.0
  0
LINE
  8
0
 10
-47.007518
 20
191.415908
 30
0.0
 11
-58.994053
 21
201.414057
 31
0.0
  0
LINE
  8
0
 10
-47.007518
 20
173.015908
 30
0.0
 11
-58.994053
 21
163.017758
 31
0.0
  0
ARC
  8
0
 10
-75.007518
 20
182.215908
 30
0.0
 40
23.0
 50
37.11915
 51
322.88085
  0
ARC
  8
0
 10
-54.94186
 20
182.215908
 30
0.0
 40
7.0
 50
322.88085
 51
37.11915
  0
LINE
  8
0
 10
-49.360184
 20
186.440229
 30
0.0
 11
-56.667726
 21
196.095822
 31
0.0
  0
LINE
  8
0
 10
-49.360184
 20
177.991586
 30
0.0
 11
-56.667726
 21
168.335993
 31
0.0
  0
CIRCLE
  8
0
 10
-75.007518
 20
182.215908
 30
0.0
 40
18.5
  0
CIRCLE
  8
0
 10
-75.007518
 20
58.481065
 30
0.0
 40
11.0
  0
ARC
  8
0
 10
-75.007518
 20
58.481065
 30
0.0
 40
27.0
 50
59.061291
 51
300.938704
  0
LINE
  8
0
 10
8.992482
 20
68.681065
 30
0.0
 11
8.992482
 21
48.281065
 31
0.0
  0
CIRCLE
  8
0
 10
-75.007518
 20
58.481065
 30
0.0
 40
12.845233
  0
CIRCLE
  8
0
 10
-75.007518
 20
58.481065
 30
0.0
 40
16.155494
  0
LINE
  8
0
 10
-40.842175
 20
69.481065
 30
0.0
 11
8.192482
 21
69.481065
 31
0.0
  0
LINE
  8
0
 10
-40.842175
 20
47.481065
 30
0.0
 11
8.192482
 21
47.481065
 31
0.0
  0
LINE
  8
0
 10
-39.507518
 20
68.681065
 30
0.0
 11
8.992482
 21
68.681065
 31
0.0
  0
LINE
  8
0
 10
-39.507518
 20
48.281065
 30
0.0
 11
8.992482
 21
48.281065
 31
0.0
  0
LINE
  8
0
 10
8.992482
 20
68.681065
 30
0.0
 11
8.192482
 21
69.481065
 31
0.0
  0
LINE
  8
0
 10
8.992482
 20
48.281065
 30
0.0
 11
8.192482
 21
47.481065
 31
0.0
  0
ARC
  8
0
 10
-75.007518
 20
58.481065
 30
0.0
 40
25.0
 50
49.339252
 51
310.660748
  0
LINE
  8
0
 10
-39.507518
 20
68.681065
 30
0.0
 11
-39.507518
 21
48.281065
 31
0.0
  0
LINE
  8
0
 10
-39.507518
 20
68.681065
 30
0.0
 11
-61.126266
 21
81.639451
 31
0.0
  0
LINE
  8
0
 10
-39.507518
 20
48.281065
 30
0.0
 11
-61.126266
 21
35.32268
 31
0.0
  0
ARC
  8
0
 10
-48.91704
 20
58.481065
 30
0.0
 40
8.0
 50
310.660735
 51
49.339265
  0
LINE
  8
0
 10
-43.70441
 20
64.549714
 30
0.0
 11
-58.718051
 21
77.445592
 31
0.0
  0
LINE
  8
0
 10
-43.70441
 20
52.412417
 30
0.0
 11
-58.718051
 21
39.516539
 31
0.0
  0
CIRCLE
  8
0
 10
-75.007518
 20
58.481065
 30
0.0
 40
20.0
  0
CIRCLE
  8
0
 10
-75.007518
 20
-70.495425
 30
0.0
 40
12.5
  0
LINE
  8
0
 10
18.992482
 20
-81.495425
 30
0.0
 11
18.992482
 21
-59.495425
 31
0.0
  0
LINE
  8
0
 10
-41.315042
 20
-58.495425
 30
0.0
 11
17.992482
 21
-58.495425
 31
0.0
  0
LINE
  8
0
 10
-41.315042
 20
-82.495425
 30
0.0
 11
17.992482
 21
-82.495425
 31
0.0
  0
ARC
  8
0
 10
-75.007518
 20
-70.495425
 30
0.0
 40
30.0
 50
52.591064
 51
307.408936
  0
CIRCLE
  8
0
 10
-75.007518
 20
-70.495425
 30
0.0
 40
14.754999
  0
CIRCLE
  8
0
 10
-75.007518
 20
-70.495425
 30
0.0
 40
18.35647
  0
CIRCLE
  8
0
 10
-75.007518
 20
-70.495425
 30
0.0
 40
22.5
  0
ARC
  8
0
 10
-75.007518
 20
-70.495425
 30
0.0
 40
27.5
 50
43.446286
 51
316.553714
  0
LINE
  8
0
 10
-40.007518
 20
-59.495425
 30
0.0
 11
18.992482
 21
-59.495425
 31
0.0
  0
LINE
  8
0
 10
-40.007518
 20
-81.495425
 30
0.0
 11
18.992482
 21
-81.495425
 31
0.0
  0
LINE
  8
0
 10
18.992482
 20
-59.495425
 30
0.0
 11
17.992482
 21
-58.495425
 31
0.0
  0
LINE
  8
0
 10
18.992482
 20
-81.495425
 30
0.0
 11
17.992482
 21
-82.495425
 31
0.0
  0
LINE
  8
0
 10
-40.007518
 20
-81.495425
 30
0.0
 11
-40.007518
 21
-59.495425
 31
0.0
  0
LINE
  8
0
 10
-40.007518
 20
-59.495425
 30
0.0
 11
-56.782537
 21
-46.66582
 31
0.0
  0
LINE
  8
0
 10
-40.007518
 20
-81.495425
 30
0.0
 11
-56.782537
 21
-94.325029
 31
0.0
  0
ARC
  8
0
 10
-52.280852
 20
-70.495425
 30
0.0
 40
11.0
 50
316.553714
 51
43.446286
  0
LINE
  8
0
 10
-44.294639
 20
-62.931008
 30
0.0
 11
-55.041985
 21
-51.584383
 31
0.0
  0
LINE
  8
0
 10
-44.294639
 20
-78.059841
 30
0.0
 11
-55.041985
 21
-89.406466
 31
0.0
  0
CIRCLE
  8
0
 10
-75.007518
 20
-214.378748
 30
0.0
 40
15.0
  0
LINE
  8
0
 10
34.992482
 20
-228.378748
 30
0.0
 11
34.992482
 21
-200.378748
 31
0.0
  0
LINE
  8
0
 10
-33.566554
 20
-199.378748
 30
0.0
 11
33.992482
 21
-199.378748
 31
0.0
  0
LINE
  8
0
 10
-33.566554
 20
-229.378748
 30
0.0
 11
33.992482
 21
-229.378748
 31
0.0
  0
LINE
  8
0
 10
-32.007518
 20
-200.378748
 30
0.0
 11
34.992482
 21
-200.378748
 31
0.0
  0
LINE
  8
0
 10
-32.007518
 20
-228.378748
 30
0.0
 11
34.992482
 21
-228.378748
 31
0.0
  0
LINE
  8
0
 10
34.992482
 20
-200.378748
 30
0.0
 11
33.992482
 21
-199.378748
 31
0.0
  0
LINE
  8
0
 10
34.992482
 20
-228.378748
 30
0.0
 11
33.992482
 21
-229.378748
 31
0.0
  0
LINE
  8
0
 10
-32.007518
 20
-228.378748
 30
0.0
 11
-32.007518
 21
-200.378748
 31
0.0
  0
LINE
  8
0
 10
-32.007518
 20
-200.378748
 30
0.0
 11
-56.110924
 21
-184.918288
 31
0.0
  0
LINE
  8
0
 10
-32.007518
 20
-228.378748
 30
0.0
 11
-56.110924
 21
-243.839209
 31
0.0
  0
CIRCLE
  8
0
 10
-75.007518
 20
-214.378748
 30
0.0
 40
17.549929
  0
CIRCLE
  8
0
 10
-75.007518
 20
-214.378748
 30
0.0
 40
22.226111
  0
ARC
  8
0
 10
-75.007518
 20
-214.378748
 30
0.0
 40
31.5
 50
51.468059
 51
308.531941
  0
ARC
  8
0
 10
-44.507518
 20
-214.378748
 30
0.0
 40
12.5
 50
308.531941
 51
51.468059
  0
LINE
  8
0
 10
-36.720633
 20
-204.600486
 30
0.0
 11
-55.384567
 21
-189.737527
 31
0.0
  0
LINE
  8
0
 10
-36.720633
 20
-224.157011
 30
0.0
 11
-55.384567
 21
-239.01997
 31
0.0
  0
CIRCLE
  8
0
 10
-75.007518
 20
-214.378748
 30
0.0
 40
26.5
  0
CIRCLE
  8
0
 10
-406.58289
 20
9.977626
 30
0.0
 40
12.0
  0
LINE
  8
0
 10
-384.68289
 20
15.077626
 30
0.0
 11
-384.68289
 21
4.877626
 31
0.0
  0
LINE
  8
0
 10
-384.68289
 20
15.077626
 30
0.0
 11
-385.58289
 21
15.977626
 31
0.0
  0
LINE
  8
0
 10
-384.68289
 20
4.877626
 30
0.0
 11
-385.58289
 21
3.977626
 31
0.0
  0
LINE
  8
0
 10
-352.58289
 20
4.877626
 30
0.0
 11
-353.48289
 21
3.977626
 31
0.0
  0
LINE
  8
0
 10
-352.58289
 20
15.077626
 30
0.0
 11
-353.48289
 21
15.977626
 31
0.0
  0
LINE
  8
0
 10
-384.68289
 20
4.877626
 30
0.0
 11
-352.58289
 21
4.877626
 31
0.0
  0
LINE
  8
0
 10
-384.68289
 20
15.077626
 30
0.0
 11
-352.58289
 21
15.077626
 31
0.0
  0
ARC
  8
0
 10
-415.896187
 20
25.205253
 30
0.0
 40
32.610106
 50
304.921234
 51
328.187979
  0
ARC
  8
0
 10
-415.896187
 20
-5.250001
 30
0.0
 40
32.610106
 50
31.812021
 51
55.078766
  0
ARC
  8
0
 10
-391.08289
 20
9.977626
 30
0.0
 40
3.5
 50
325.899299
 51
34.100701
  0
ARC
  8
0
 10
-406.58289
 20
9.977626
 30
0.0
 40
14.832397
 50
50.900415
 51
309.099585
  0
CIRCLE
  8
0
 10
-406.58289
 20
9.977626
 30
0.0
 40
9.5
  0
CIRCLE
  8
0
 10
-406.58289
 20
9.977626
 30
0.0
 40
7.694803
  0
CIRCLE
  8
0
 10
-406.58289
 20
9.977626
 30
0.0
 40
6.0
  0
LINE
  8
0
 10
-387.58289
 20
15.977626
 30
0.0
 11
-397.202378
 21
22.939339
 31
0.0
  0
LINE
  8
0
 10
-387.58289
 20
3.977626
 30
0.0
 11
-397.202378
 21
-2.984087
 31
0.0
  0
LINE
  8
0
 10
-352.58289
 20
15.077626
 30
0.0
 11
-352.58289
 21
4.877626
 31
0.0
  0
LINE
  8
0
 10
-387.58289
 20
3.977626
 30
0.0
 11
-353.48289
 21
3.977626
 31
0.0
  0
LINE
  8
0
 10
-387.58289
 20
15.977626
 30
0.0
 11
-353.48289
 21
15.977626
 31
0.0
  0
ARC
  8
0
 10
-406.58289
 20
9.977626
 30
0.0
 40
16.0
 50
54.106393
 51
305.893607
  0
CIRCLE
  8
0
 10
-406.58289
 20
197.215908
 30
0.0
 40
7.25
  0
LINE
  8
0
 10
-391.582884
 20
199.715908
 30
0.0
 11
-391.58289
 21
194.715908
 31
0.0
  0
LINE
  8
0
 10
-392.08289
 20
200.215913
 30
0.0
 11
-391.582884
 21
199.715908
 31
0.0
  0
LINE
  8
0
 10
-392.08289
 20
194.215908
 30
0.0
 11
-391.58289
 21
194.715908
 31
0.0
  0
LINE
  8
0
 10
-392.08289
 20
194.215908
 30
0.0
 11
-401.463642
 21
188.625605
 31
0.0
  0
LINE
  8
0
 10
-392.08289
 20
200.215908
 30
0.0
 11
-401.463642
 21
205.80621
 31
0.0
  0
LINE
  8
0
 10
-370.58289
 20
194.715908
 30
0.0
 11
-371.08289
 21
194.215908
 31
0.0
  0
LINE
  8
0
 10
-370.58289
 20
199.715908
 30
0.0
 11
-371.08289
 21
200.215908
 31
0.0
  0
LINE
  8
0
 10
-391.58289
 20
194.715908
 30
0.0
 11
-370.58289
 21
194.715908
 31
0.0
  0
LINE
  8
0
 10
-391.582884
 20
199.715908
 30
0.0
 11
-370.58289
 21
199.715908
 31
0.0
  0
LINE
  8
0
 10
-370.58289
 20
194.715908
 30
0.0
 11
-370.58289
 21
199.715908
 31
0.0
  0
LINE
  8
0
 10
-392.08289
 20
194.215908
 30
0.0
 11
-371.08289
 21
194.215908
 31
0.0
  0
LINE
  8
0
 10
-392.08289
 20
200.215908
 30
0.0
 11
-371.08289
 21
200.215908
 31
0.0
  0
LINE
  8
0
 10
-400.709172
 20
189.941161
 30
0.0
 11
-393.626479
 21
195.659812
 31
0.0
  0
LINE
  8
0
 10
-393.626479
 20
198.772003
 30
0.0
 11
-400.709172
 21
204.490654
 31
0.0
  0
ARC
  8
0
 10
-394.88289
 20
197.215908
 30
0.0
 40
2.0
 50
308.917824
 51
51.082176
  0
ARC
  8
0
 10
-406.58289
 20
197.215908
 30
0.0
 40
9.35
 50
51.082176
 51
308.917824
  0
CIRCLE
  8
0
 10
-406.58289
 20
197.215908
 30
0.0
 40
5.65
  0
CIRCLE
  8
0
 10
-406.58289
 20
197.215908
 30
0.0
 40
4.55
  0
ARC
  8
0
 10
-406.58289
 20
197.215908
 30
0.0
 40
10.0
 50
59.207877
 51
300.792123
  0
CIRCLE
  8
0
 10
-406.58289
 20
197.215908
 30
0.0
 40
3.0
  0
ARC
  8
0
 10
-75.007518
 20
-214.378748
 30
0.0
 40
35.0
 50
57.322985
 51
302.677015
  0
LINE
  8
0
 10
-371.08289
 20
200.215908
 30
0.0
 11
-371.08289
 21
194.215908
 31
0.0
  0
LINE
  8
0
 10
-371.08289
 20
180.918672
 30
0.0
 11
-371.08289
 21
174.918672
 31
0.0
  0
LINE
  8
0
 10
-365.18289
 20
150.723207
 30
0.0
 11
-365.18289
 21
142.723207
 31
0.0
  0
LINE
  8
0
 10
-365.18289
 20
127.007215
 30
0.0
 11
-365.18289
 21
119.007215
 31
0.0
  0
LINE
  8
0
 10
-359.33289
 20
63.455749
 30
0.0
 11
-359.33289
 21
53.455749
 31
0.0
  0
LINE
  8
0
 10
-359.33289
 20
91.511766
 30
0.0
 11
-359.33289
 21
81.511766
 31
0.0
  0
LINE
  8
0
 10
-353.48289
 20
15.977626
 30
0.0
 11
-353.48289
 21
3.977626
 31
0.0
  0
LINE
  8
0
 10
-352.957412
 20
-13.91891
 30
0.0
 11
-352.957412
 21
-25.91891
 31
0.0
  0
LINE
  8
0
 10
-347.58289
 20
-60.703204
 30
0.0
 11
-347.58289
 21
-74.703204
 31
0.0
  0
LINE
  8
0
 10
-347.58289
 20
-95.296501
 30
0.0
 11
-347.58289
 21
-109.296501
 31
0.0
  0
LINE
  8
0
 10
-341.58289
 20
-154.480078
 30
0.0
 11
-341.58289
 21
-170.480078
 31
0.0
  0
LINE
  8
0
 10
-341.58289
 20
-196.142347
 30
0.0
 11
-341.58289
 21
-212.142347
 31
0.0
  0
LINE
  8
0
 10
-336.244485
 20
-256.641347
 30
0.0
 11
-336.244485
 21
-274.641347
 31
0.0
  0
LINE
  8
0
 10
-336.244485
 20
-302.242996
 30
0.0
 11
-336.244485
 21
-320.242996
 31
0.0
  0
LINE
  8
0
 10
2.192482
 20
192.215908
 30
0.0
 11
2.192482
 21
172.215908
 31
0.0
  0
LINE
  8
0
 10
2.192482
 20
142.081078
 30
0.0
 11
2.192482
 21
122.081078
 31
0.0
  0
LINE
  8
0
 10
8.192482
 20
69.481065
 30
0.0
 11
8.192482
 21
47.481065
 31
0.0
  0
LINE
  8
0
 10
8.192482
 20
13.251182
 30
0.0
 11
8.192482
 21
-8.748818
 31
0.0
  0
LINE
  8
0
 10
17.992482
 20
-58.495425
 30
0.0
 11
17.992482
 21
-82.495425
 31
0.0
  0
LINE
  8
0
 10
17.992482
 20
-119.398782
 30
0.0
 11
17.992482
 21
-143.398782
 31
0.0
  0
LINE
  8
0
 10
33.992482
 20
-199.378748
 30
0.0
 11
33.992482
 21
-229.378748
 31
0.0
  0
LINE
  8
0
 10
33.992482
 20
-269.879351
 30
0.0
 11
33.992482
 21
-299.879351
 31
0.0
  0
LINE
  8
0
 10
-47.966618
 20
122.081078
 30
0.0
 11
-48.966618
 21
123.081078
 31
0.0
  0
LINE
  8
0
 10
-47.966618
 20
142.081078
 30
0.0
 11
-48.966618
 21
141.081078
 31
0.0
  0
LINE
  8
0
 10
-98.331326
 20
123.081078
 30
0.0
 11
-48.966618
 21
123.081078
 31
0.0
  0
LINE
  8
0
 10
-98.331326
 20
141.081078
 30
0.0
 11
-48.966618
 21
141.081078
 31
0.0
  0
LINE
  8
0
 10
2.992482
 20
141.281078
 30
0.0
 11
2.992482
 21
122.881078
 31
0.0
  0
ARC
  8
0
 10
-75.007518
 20
132.081078
 30
0.0
 40
25.0
 50
158.899804
 51
201.100196
  0
LINE
  8
0
 10
-47.966618
 20
142.081078
 30
0.0
 11
2.192482
 21
142.081078
 31
0.0
  0
LINE
  8
0
 10
-47.966618
 20
122.081078
 30
0.0
 11
2.192482
 21
122.081078
 31
0.0
  0
LINE
  8
0
 10
-47.007518
 20
141.281078
 30
0.0
 11
2.992482
 21
141.281078
 31
0.0
  0
LINE
  8
0
 10
-47.007518
 20
122.881078
 30
0.0
 11
2.992482
 21
122.881078
 31
0.0
  0
LINE
  8
0
 10
2.992482
 20
141.281078
 30
0.0
 11
2.192482
 21
142.081078
 31
0.0
  0
LINE
  8
0
 10
2.992482
 20
122.881078
 30
0.0
 11
2.192482
 21
122.081078
 31
0.0
  0
LINE
  8
0
 10
-47.007518
 20
141.281078
 30
0.0
 11
-47.007518
 21
122.881078
 31
0.0
  0
LINE
  8
0
 10
-47.007518
 20
141.281078
 30
0.0
 11
-47.966618
 21
142.081078
 31
0.0
  0
LINE
  8
0
 10
-47.007518
 20
122.881078
 30
0.0
 11
-47.966618
 21
122.081078
 31
0.0
  0
ARC
  8
0
 10
-182.130301
 20
-284.879351
 30
0.0
 40
25.5
 50
29.35347
 51
46.509642
  0
ARC
  8
0
 10
-182.130301
 20
-284.879351
 30
0.0
 40
25.5
 50
209.35347
 51
226.509642
  0
ARC
  8
0
 10
-182.130301
 20
-284.879351
 30
0.0
 40
25.5
 50
133.490358
 51
150.64653
  0
ARC
  8
0
 10
-182.130301
 20
-284.879351
 30
0.0
 40
25.5
 50
313.490358
 51
330.64653
  0
LINE
  8
0
 10
-199.680229
 20
-266.379351
 30
0.0
 11
-164.580372
 21
-266.379351
 31
0.0
  0
LINE
  8
0
 10
-199.680229
 20
-303.379351
 30
0.0
 11
-164.580372
 21
-303.379351
 31
0.0
  0
LINE
  8
0
 10
-173.838739
 20
-297.379351
 30
0.0
 11
-149.438558
 21
-297.379351
 31
0.0
  0
LINE
  8
0
 10
-173.838739
 20
-272.379351
 30
0.0
 11
-149.438558
 21
-272.379351
 31
0.0
  0
LINE
  8
0
 10
-214.822043
 20
-297.379351
 30
0.0
 11
-190.421863
 21
-297.379351
 31
0.0
  0
LINE
  8
0
 10
-214.822043
 20
-272.379351
 30
0.0
 11
-190.421863
 21
-272.379351
 31
0.0
  0
ARC
  8
0
 10
-182.130301
 20
-284.879351
 30
0.0
 40
35.0
 50
159.075168
 51
200.924832
  0
ARC
  8
0
 10
-182.130301
 20
-284.879351
 30
0.0
 40
35.0
 50
339.075168
 51
20.924832
  0
CIRCLE
  8
0
 10
-182.130301
 20
-284.879351
 30
0.0
 40
15.0
  0
CIRCLE
  8
0
 10
-182.130301
 20
-284.879351
 30
0.0
 40
14.0
  0
ARC
  8
0
 10
-170.647704
 20
-131.398782
 30
0.0
 40
21.4
 50
30.931885
 51
46.41057
  0
ARC
  8
0
 10
-170.647704
 20
-131.398782
 30
0.0
 40
21.4
 50
210.931885
 51
226.41057
  0
ARC
  8
0
 10
-170.647704
 20
-131.398782
 30
0.0
 40
21.4
 50
133.58943
 51
149.068115
  0
ARC
  8
0
 10
-170.647704
 20
-131.398782
 30
0.0
 40
21.4
 50
313.58943
 51
329.068115
  0
LINE
  8
0
 10
-185.402703
 20
-115.898782
 30
0.0
 11
-155.892705
 21
-115.898782
 31
0.0
  0
LINE
  8
0
 10
-185.402703
 20
-146.898782
 30
0.0
 11
-155.892705
 21
-146.898782
 31
0.0
  0
LINE
  8
0
 10
-165.851872
 20
-142.398782
 30
0.0
 11
-142.737132
 21
-142.398782
 31
0.0
  0
LINE
  8
0
 10
-165.851872
 20
-120.398782
 30
0.0
 11
-142.737132
 21
-120.398782
 31
0.0
  0
ARC
  8
0
 10
-170.647704
 20
-131.398782
 30
0.0
 40
30.0
 50
338.489812
 51
21.510188
  0
LINE
  8
0
 10
-198.558275
 20
-142.398782
 30
0.0
 11
-175.443535
 21
-142.398782
 31
0.0
  0
LINE
  8
0
 10
-198.558275
 20
-120.398782
 30
0.0
 11
-175.443535
 21
-120.398782
 31
0.0
  0
ARC
  8
0
 10
-170.647704
 20
-131.398782
 30
0.0
 40
30.0
 50
158.489812
 51
201.510188
  0
CIRCLE
  8
0
 10
-170.647704
 20
-131.398782
 30
0.0
 40
11.0
  0
CIRCLE
  8
0
 10
-170.647704
 20
-131.398782
 30
0.0
 40
12.0
  0
LINE
  8
0
 10
-158.128407
 20
-7.748818
 30
0.0
 11
-137.63111
 21
-7.748818
 31
0.0
  0
LINE
  8
0
 10
-158.128407
 20
12.251182
 30
0.0
 11
-137.63111
 21
12.251182
 31
0.0
  0
CIRCLE
  8
0
 10
-162.710983
 20
2.251182
 30
0.0
 40
10.2
  0
CIRCLE
  8
0
 10
-162.710983
 20
2.251182
 30
0.0
 40
11.0
  0
LINE
  8
0
 10
-187.790855
 20
-7.748818
 30
0.0
 11
-167.293558
 21
-7.748818
 31
0.0
  0
LINE
  8
0
 10
-187.790855
 20
12.251182
 30
0.0
 11
-167.293558
 21
12.251182
 31
0.0
  0
ARC
  8
0
 10
-162.710983
 20
2.251182
 30
0.0
 40
27.0
 50
158.261539
 51
201.738461
  0
ARC
  8
0
 10
-162.710983
 20
2.251182
 30
0.0
 40
27.0
 50
338.261539
 51
21.738461
  0
LINE
  8
0
 10
-152.771305
 20
123.081078
 30
0.0
 11
-133.806396
 21
123.081078
 31
0.0
  0
LINE
  8
0
 10
-152.771305
 20
141.081078
 30
0.0
 11
-133.806396
 21
141.081078
 31
0.0
  0
CIRCLE
  8
0
 10
-157.130204
 20
132.081078
 30
0.0
 40
9.2
  0
CIRCLE
  8
0
 10
-157.130204
 20
132.081078
 30
0.0
 40
10.0
  0
ARC
  8
0
 10
-157.130204
 20
132.081078
 30
0.0
 40
25.0
 50
338.899804
 51
21.100196
  0
LINE
  8
0
 10
-180.454011
 20
123.081078
 30
0.0
 11
-161.489103
 21
123.081078
 31
0.0
  0
LINE
  8
0
 10
-180.454011
 20
141.081078
 30
0.0
 11
-161.489103
 21
141.081078
 31
0.0
  0
ARC
  8
0
 10
-157.130204
 20
132.081078
 30
0.0
 40
25.0
 50
158.899804
 51
201.100196
  0
LINE
  8
0
 10
-383.308761
 20
-320.242996
 30
0.0
 11
-384.058761
 21
-319.492996
 31
0.0
  0
LINE
  8
0
 10
-383.308761
 20
-302.242996
 30
0.0
 11
-384.058761
 21
-302.992996
 31
0.0
  0
LINE
  8
0
 10
-428.91394
 20
-302.992996
 30
0.0
 11
-384.058761
 21
-302.992996
 31
0.0
  0
LINE
  8
0
 10
-428.91394
 20
-319.492996
 30
0.0
 11
-384.058761
 21
-319.492996
 31
0.0
  0
LINE
  8
0
 10
-335.444485
 20
-303.042996
 30
0.0
 11
-335.444485
 21
-319.442996
 31
0.0
  0
ARC
  8
0
 10
-407.444485
 20
-311.242996
 30
0.0
 40
23.0
 50
158.979887
 51
201.020113
  0
LINE
  8
0
 10
-383.308761
 20
-302.242996
 30
0.0
 11
-336.244485
 21
-302.242996
 31
0.0
  0
LINE
  8
0
 10
-383.308761
 20
-320.242996
 30
0.0
 11
-336.244485
 21
-320.242996
 31
0.0
  0
LINE
  8
0
 10
-382.444485
 20
-303.042996
 30
0.0
 11
-335.444485
 21
-303.042996
 31
0.0
  0
LINE
  8
0
 10
-382.444485
 20
-319.442996
 30
0.0
 11
-335.444485
 21
-319.442996
 31
0.0
  0
LINE
  8
0
 10
-335.444485
 20
-303.042996
 30
0.0
 11
-336.244485
 21
-302.242996
 31
0.0
  0
LINE
  8
0
 10
-335.444485
 20
-319.442996
 30
0.0
 11
-336.244485
 21
-320.242996
 31
0.0
  0
LINE
  8
0
 10
-382.444485
 20
-303.042996
 30
0.0
 11
-382.444485
 21
-319.442996
 31
0.0
  0
LINE
  8
0
 10
-382.444485
 20
-303.042996
 30
0.0
 11
-383.308761
 21
-302.242996
 31
0.0
  0
LINE
  8
0
 10
-382.444485
 20
-319.442996
 30
0.0
 11
-383.308761
 21
-320.242996
 31
0.0
  0
LINE
  8
0
 10
-384.26891
 20
-212.142347
 30
0.0
 11
-384.76891
 21
-211.642347
 31
0.0
  0
LINE
  8
0
 10
-384.26891
 20
-196.142347
 30
0.0
 11
-384.76891
 21
-196.642347
 31
0.0
  0
LINE
  8
0
 10
-426.197935
 20
-211.642347
 30
0.0
 11
-384.76891
 21
-211.642347
 31
0.0
  0
LINE
  8
0
 10
-426.197935
 20
-196.642347
 30
0.0
 11
-384.76891
 21
-196.642347
 31
0.0
  0
ARC
  8
0
 10
-406.58289
 20
-204.142347
 30
0.0
 40
21.0
 50
159.075168
 51
200.924832
  0
LINE
  8
0
 10
-340.58289
 20
-197.142347
 30
0.0
 11
-340.58289
 21
-211.142347
 31
0.0
  0
LINE
  8
0
 10
-384.26891
 20
-196.142347
 30
0.0
 11
-341.58289
 21
-196.142347
 31
0.0
  0
LINE
  8
0
 10
-384.26891
 20
-212.142347
 30
0.0
 11
-341.58289
 21
-212.142347
 31
0.0
  0
LINE
  8
0
 10
-383.18289
 20
-197.142347
 30
0.0
 11
-340.58289
 21
-197.142347
 31
0.0
  0
LINE
  8
0
 10
-383.18289
 20
-211.142347
 30
0.0
 11
-340.58289
 21
-211.142347
 31
0.0
  0
LINE
  8
0
 10
-340.58289
 20
-197.142347
 30
0.0
 11
-341.58289
 21
-196.142347
 31
0.0
  0
LINE
  8
0
 10
-340.58289
 20
-211.142347
 30
0.0
 11
-341.58289
 21
-212.142347
 31
0.0
  0
LINE
  8
0
 10
-383.18289
 20
-197.142347
 30
0.0
 11
-383.18289
 21
-211.142347
 31
0.0
  0
LINE
  8
0
 10
-383.18289
 20
-197.142347
 30
0.0
 11
-384.26891
 21
-196.142347
 31
0.0
  0
LINE
  8
0
 10
-383.18289
 20
-211.142347
 30
0.0
 11
-384.26891
 21
-212.142347
 31
0.0
  0
LINE
  8
0
 10
-423.269336
 20
-109.046501
 30
0.0
 11
-386.166223
 21
-109.046501
 31
0.0
  0
LINE
  8
0
 10
-384.58289
 20
-108.296501
 30
0.0
 11
-385.916223
 21
-109.296501
 31
0.0
  0
LINE
  8
0
 10
-385.916223
 20
-109.296501
 30
0.0
 11
-386.166223
 21
-109.046501
 31
0.0
  0
LINE
  8
0
 10
-385.916223
 20
-95.296501
 30
0.0
 11
-386.166223
 21
-95.546501
 31
0.0
  0
LINE
  8
0
 10
-384.58289
 20
-96.296501
 30
0.0
 11
-385.916223
 21
-95.296501
 31
0.0
  0
LINE
  8
0
 10
-423.269336
 20
-95.546501
 30
0.0
 11
-386.166223
 21
-95.546501
 31
0.0
  0
ARC
  8
0
 10
-406.58289
 20
-102.296501
 30
0.0
 40
18.0
 50
157.975687
 51
202.024313
  0
LINE
  8
0
 10
-346.58289
 20
-96.296501
 30
0.0
 11
-346.58289
 21
-108.296501
 31
0.0
  0
LINE
  8
0
 10
-385.916223
 20
-95.296501
 30
0.0
 11
-347.58289
 21
-95.296501
 31
0.0
  0
LINE
  8
0
 10
-385.916223
 20
-109.296501
 30
0.0
 11
-347.58289
 21
-109.296501
 31
0.0
  0
LINE
  8
0
 10
-384.58289
 20
-96.296501
 30
0.0
 11
-346.58289
 21
-96.296501
 31
0.0
  0
LINE
  8
0
 10
-384.58289
 20
-108.296501
 30
0.0
 11
-346.58289
 21
-108.296501
 31
0.0
  0
LINE
  8
0
 10
-346.58289
 20
-96.296501
 30
0.0
 11
-347.58289
 21
-95.296501
 31
0.0
  0
LINE
  8
0
 10
-346.58289
 20
-108.296501
 30
0.0
 11
-347.58289
 21
-109.296501
 31
0.0
  0
LINE
  8
0
 10
-384.58289
 20
-96.296501
 30
0.0
 11
-384.58289
 21
-108.296501
 31
0.0
  0
ARC
  8
0
 10
-480.222732
 20
-311.255086
 30
0.0
 40
15.875
 50
313.580257
 51
328.688873
  0
ARC
  8
0
 10
-480.222732
 20
-311.255086
 30
0.0
 40
15.875
 50
31.311127
 51
46.419743
  0
ARC
  8
0
 10
-480.222732
 20
-311.255086
 30
0.0
 40
15.875
 50
211.311127
 51
226.419743
  0
ARC
  8
0
 10
-480.222732
 20
-311.255086
 30
0.0
 40
15.875
 50
133.580257
 51
148.688873
  0
LINE
  8
0
 10
-491.16648
 20
-299.755086
 30
0.0
 11
-469.278984
 21
-299.755086
 31
0.0
  0
LINE
  8
0
 10
-491.16648
 20
-322.755086
 30
0.0
 11
-469.278984
 21
-322.755086
 31
0.0
  0
LINE
  8
0
 10
-476.625858
 20
-319.505086
 30
0.0
 11
-458.753277
 21
-319.505086
 31
0.0
  0
LINE
  8
0
 10
-476.625858
 20
-303.005086
 30
0.0
 11
-458.753277
 21
-303.005086
 31
0.0
  0
LINE
  8
0
 10
-501.692187
 20
-303.005086
 30
0.0
 11
-483.819605
 21
-303.005086
 31
0.0
  0
LINE
  8
0
 10
-501.692187
 20
-319.505086
 30
0.0
 11
-483.819605
 21
-319.505086
 31
0.0
  0
ARC
  8
0
 10
-480.222732
 20
-311.255086
 30
0.0
 40
23.0
 50
158.979887
 51
201.020113
  0
ARC
  8
0
 10
-480.222732
 20
-311.255086
 30
0.0
 40
23.0
 50
338.979887
 51
21.020113
  0
CIRCLE
  8
0
 10
-480.222732
 20
-311.255086
 30
0.0
 40
9.0
  0
CIRCLE
  8
0
 10
-480.222732
 20
-311.255086
 30
0.0
 40
8.2
  0
ARC
  8
0
 10
-407.444485
 20
-311.242996
 30
0.0
 40
15.875
 50
313.580257
 51
328.688873
  0
ARC
  8
0
 10
-407.444485
 20
-311.242996
 30
0.0
 40
15.875
 50
31.311127
 51
46.419743
  0
ARC
  8
0
 10
-407.444485
 20
-311.242996
 30
0.0
 40
15.875
 50
211.311127
 51
226.419743
  0
ARC
  8
0
 10
-407.444485
 20
-311.242996
 30
0.0
 40
15.875
 50
133.580257
 51
148.688873
  0
LINE
  8
0
 10
-418.388233
 20
-299.742996
 30
0.0
 11
-396.500736
 21
-299.742996
 31
0.0
  0
LINE
  8
0
 10
-418.388233
 20
-322.742996
 30
0.0
 11
-396.500736
 21
-322.742996
 31
0.0
  0
ARC
  8
0
 10
-476.744816
 20
-204.142347
 30
0.0
 40
14.3
 50
312.754792
 51
328.367057
  0
ARC
  8
0
 10
-476.744816
 20
-204.142347
 30
0.0
 40
14.3
 50
132.754792
 51
148.367057
  0
ARC
  8
0
 10
-476.744816
 20
-204.142347
 30
0.0
 40
14.3
 50
31.632943
 51
47.245208
  0
ARC
  8
0
 10
-476.744816
 20
-204.142347
 30
0.0
 40
14.3
 50
211.632943
 51
227.245208
  0
LINE
  8
0
 10
-486.452544
 20
-193.642347
 30
0.0
 11
-467.037087
 21
-193.642347
 31
0.0
  0
LINE
  8
0
 10
-486.452544
 20
-214.642347
 30
0.0
 11
-467.037087
 21
-214.642347
 31
0.0
  0
LINE
  8
0
 10
-473.960933
 20
-211.642347
 30
0.0
 11
-457.12977
 21
-211.642347
 31
0.0
  0
LINE
  8
0
 10
-473.960933
 20
-196.642347
 30
0.0
 11
-457.12977
 21
-196.642347
 31
0.0
  0
CIRCLE
  8
0
 10
-476.744816
 20
-204.142347
 30
0.0
 40
7.0
  0
CIRCLE
  8
0
 10
-476.744816
 20
-204.142347
 30
0.0
 40
8.0
  0
ARC
  8
0
 10
-476.744816
 20
-204.142347
 30
0.0
 40
21.0
 50
339.075168
 51
20.924832
  0
ARC
  8
0
 10
-476.744816
 20
-204.142347
 30
0.0
 40
21.0
 50
159.075168
 51
200.924832
  0
LINE
  8
0
 10
-496.359861
 20
-196.642347
 30
0.0
 11
-479.528698
 21
-196.642347
 31
0.0
  0
LINE
  8
0
 10
-496.359861
 20
-211.642347
 30
0.0
 11
-479.528698
 21
-211.642347
 31
0.0
  0
ARC
  8
0
 10
-406.58289
 20
-204.142347
 30
0.0
 40
14.3
 50
312.754792
 51
328.367057
  0
ARC
  8
0
 10
-406.58289
 20
-204.142347
 30
0.0
 40
14.3
 50
132.754792
 51
148.367057
  0
ARC
  8
0
 10
-406.58289
 20
-204.142347
 30
0.0
 40
14.3
 50
31.632943
 51
47.245208
  0
ARC
  8
0
 10
-406.58289
 20
-204.142347
 30
0.0
 40
14.3
 50
211.632943
 51
227.245208
  0
LINE
  8
0
 10
-416.290619
 20
-193.642347
 30
0.0
 11
-396.875161
 21
-193.642347
 31
0.0
  0
LINE
  8
0
 10
-416.290619
 20
-214.642347
 30
0.0
 11
-396.875161
 21
-214.642347
 31
0.0
  0
ARC
  8
0
 10
-462.957418
 20
-102.296501
 30
0.0
 40
12.7
 50
212.106594
 51
228.420147
  0
ARC
  8
0
 10
-462.957418
 20
-102.296501
 30
0.0
 40
12.7
 50
32.106594
 51
48.420147
  0
LINE
  8
0
 10
-471.385941
 20
-111.796501
 30
0.0
 11
-454.528895
 21
-111.796501
 31
0.0
  0
ARC
  8
0
 10
-462.957418
 20
-102.296501
 30
0.0
 40
12.7
 50
311.579853
 51
327.893406
  0
ARC
  8
0
 10
-462.957418
 20
-102.296501
 30
0.0
 40
12.7
 50
131.579853
 51
147.893406
  0
LINE
  8
0
 10
-471.385941
 20
-92.796501
 30
0.0
 11
-454.528895
 21
-92.796501
 31
0.0
  0
LINE
  8
0
 10
-461.103369
 20
-109.046501
 30
0.0
 11
-446.270972
 21
-109.046501
 31
0.0
  0
LINE
  8
0
 10
-461.103369
 20
-95.546501
 30
0.0
 11
-446.270972
 21
-95.546501
 31
0.0
  0
CIRCLE
  8
0
 10
-462.957418
 20
-102.296501
 30
0.0
 40
6.0
  0
CIRCLE
  8
0
 10
-462.957418
 20
-102.296501
 30
0.0
 40
7.0
  0
LINE
  8
0
 10
-479.643865
 20
-109.046501
 30
0.0
 11
-464.811468
 21
-109.046501
 31
0.0
  0
LINE
  8
0
 10
-479.643865
 20
-95.546501
 30
0.0
 11
-464.811468
 21
-95.546501
 31
0.0
  0
ARC
  8
0
 10
-462.957418
 20
-102.296501
 30
0.0
 40
18.0
 50
157.975687
 51
202.024313
  0
ARC
  8
0
 10
-462.957418
 20
-102.296501
 30
0.0
 40
18.0
 50
337.975687
 51
22.024313
  0
ARC
  8
0
 10
-406.58289
 20
-102.296501
 30
0.0
 40
12.7
 50
212.106594
 51
228.420147
  0
ARC
  8
0
 10
-406.58289
 20
-102.296501
 30
0.0
 40
12.7
 50
32.106594
 51
48.420147
  0
LINE
  8
0
 10
-415.011413
 20
-111.796501
 30
0.0
 11
-398.154367
 21
-111.796501
 31
0.0
  0
ARC
  8
0
 10
-406.58289
 20
-102.296501
 30
0.0
 40
12.7
 50
311.579853
 51
327.893406
  0
ARC
  8
0
 10
-406.58289
 20
-102.296501
 30
0.0
 40
12.7
 50
131.579853
 51
147.893406
  0
LINE
  8
0
 10
-415.011413
 20
-92.796501
 30
0.0
 11
-398.154367
 21
-92.796501
 31
0.0
  0
LINE
  8
0
 10
-307.264755
 20
-303.005086
 30
0.0
 11
-264.325845
 21
-303.005086
 31
0.0
  0
LINE
  8
0
 10
-307.264755
 20
-319.505086
 30
0.0
 11
-264.325845
 21
-319.505086
 31
0.0
  0
ARC
  8
0
 10
-285.7953
 20
-311.255086
 30
0.0
 40
23.0
 50
158.979887
 51
201.020113
  0
ARC
  8
0
 10
-285.7953
 20
-311.255086
 30
0.0
 40
23.0
 50
338.979887
 51
21.020113
  0
ARC
  8
0
 10
-285.7953
 20
-311.255086
 30
0.0
 40
15.875
 50
313.580257
 51
328.688873
  0
ARC
  8
0
 10
-285.7953
 20
-311.255086
 30
0.0
 40
15.875
 50
31.311127
 51
46.419743
  0
ARC
  8
0
 10
-285.7953
 20
-311.255086
 30
0.0
 40
15.875
 50
211.311127
 51
226.419743
  0
ARC
  8
0
 10
-285.7953
 20
-311.255086
 30
0.0
 40
15.875
 50
133.580257
 51
148.688873
  0
LINE
  8
0
 10
-296.739048
 20
-299.755086
 30
0.0
 11
-274.851551
 21
-299.755086
 31
0.0
  0
LINE
  8
0
 10
-296.739048
 20
-322.755086
 30
0.0
 11
-274.851551
 21
-322.755086
 31
0.0
  0
ARC
  8
0
 10
-291.146553
 20
-204.142347
 30
0.0
 40
21.0
 50
339.075168
 51
20.924832
  0
ARC
  8
0
 10
-291.146553
 20
-204.142347
 30
0.0
 40
21.0
 50
159.075168
 51
200.924832
  0
LINE
  8
0
 10
-310.761599
 20
-196.642347
 30
0.0
 11
-271.531508
 21
-196.642347
 31
0.0
  0
LINE
  8
0
 10
-310.761599
 20
-211.642347
 30
0.0
 11
-271.531508
 21
-211.642347
 31
0.0
  0
ARC
  8
0
 10
-291.146553
 20
-204.142347
 30
0.0
 40
14.3
 50
312.754792
 51
328.367057
  0
ARC
  8
0
 10
-291.146553
 20
-204.142347
 30
0.0
 40
14.3
 50
132.754792
 51
148.367057
  0
ARC
  8
0
 10
-291.146553
 20
-204.142347
 30
0.0
 40
14.3
 50
31.632943
 51
47.245208
  0
ARC
  8
0
 10
-291.146553
 20
-204.142347
 30
0.0
 40
14.3
 50
211.632943
 51
227.245208
  0
LINE
  8
0
 10
-300.854282
 20
-193.642347
 30
0.0
 11
-281.438825
 21
-193.642347
 31
0.0
  0
LINE
  8
0
 10
-300.854282
 20
-214.642347
 30
0.0
 11
-281.438825
 21
-214.642347
 31
0.0
  0
LINE
  8
0
 10
-322.192877
 20
-109.046501
 30
0.0
 11
-288.819984
 21
-109.046501
 31
0.0
  0
LINE
  8
0
 10
-322.192877
 20
-95.546501
 30
0.0
 11
-288.819984
 21
-95.546501
 31
0.0
  0
ARC
  8
0
 10
-305.506431
 20
-102.296501
 30
0.0
 40
18.0
 50
157.975687
 51
202.024313
  0
ARC
  8
0
 10
-305.506431
 20
-102.296501
 30
0.0
 40
18.0
 50
337.975687
 51
22.024313
  0
ARC
  8
0
 10
-305.506431
 20
-102.296501
 30
0.0
 40
12.7
 50
212.106594
 51
228.420147
  0
ARC
  8
0
 10
-305.506431
 20
-102.296501
 30
0.0
 40
12.7
 50
32.106594
 51
48.420147
  0
LINE
  8
0
 10
-313.934954
 20
-111.796501
 30
0.0
 11
-297.077908
 21
-111.796501
 31
0.0
  0
ARC
  8
0
 10
-305.506431
 20
-102.296501
 30
0.0
 40
12.7
 50
311.579853
 51
327.893406
  0
ARC
  8
0
 10
-305.506431
 20
-102.296501
 30
0.0
 40
12.7
 50
131.579853
 51
147.893406
  0
LINE
  8
0
 10
-313.934954
 20
-92.796501
 30
0.0
 11
-297.077908
 21
-92.796501
 31
0.0
  0
LINE
  8
0
 10
-420.879809
 20
-25.91891
 30
0.0
 11
-420.871809
 21
-25.91891
 31
0.0
  0
LINE
  8
0
 10
-420.868809
 20
-25.91891
 30
0.0
 11
-420.860109
 21
-25.91891
 31
0.0
  0
LINE
  8
0
 10
-420.889809
 20
-25.91891
 30
0.0
 11
-352.957412
 21
-25.91891
 31
0.0
  0
LINE
  8
0
 10
-420.889809
 20
-13.91891
 30
0.0
 11
-352.957412
 21
-13.91891
 31
0.0
  0
ARC
  8
0
 10
-406.057412
 20
-19.91891
 30
0.0
 40
16.0
 50
157.975687
 51
202.024313
  0
LINE
  8
0
 10
-420.886809
 20
-25.91891
 30
0.0
 11
-420.882809
 21
-25.91891
 31
0.0
  0
LINE
  8
0
 10
-352.057412
 20
-14.81891
 30
0.0
 11
-352.057412
 21
-25.01891
 31
0.0
  0
LINE
  8
0
 10
-384.157412
 20
-14.81891
 30
0.0
 11
-352.057412
 21
-14.81891
 31
0.0
  0
LINE
  8
0
 10
-384.157412
 20
-25.01891
 30
0.0
 11
-352.057412
 21
-25.01891
 31
0.0
  0
LINE
  8
0
 10
-352.057412
 20
-14.81891
 30
0.0
 11
-352.957412
 21
-13.91891
 31
0.0
  0
LINE
  8
0
 10
-352.057412
 20
-25.01891
 30
0.0
 11
-352.957412
 21
-25.91891
 31
0.0
  0
LINE
  8
0
 10
-384.157412
 20
-25.01891
 30
0.0
 11
-385.057412
 21
-25.91891
 31
0.0
  0
LINE
  8
0
 10
-384.157412
 20
-14.81891
 30
0.0
 11
-385.057412
 21
-13.91891
 31
0.0
  0
LINE
  8
0
 10
-384.157412
 20
-14.81891
 30
0.0
 11
-384.157412
 21
-25.01891
 31
0.0
  0
LINE
  8
0
 10
-419.561237
 20
53.205749
 30
0.0
 11
-389.101236
 21
53.205749
 31
0.0
  0
LINE
  8
0
 10
-419.561237
 20
63.705749
 30
0.0
 11
-389.101236
 21
63.705749
 31
0.0
  0
ARC
  8
0
 10
-406.58289
 20
58.455749
 30
0.0
 40
14.0
 50
157.975687
 51
202.024313
  0
LINE
  8
0
 10
-358.58289
 20
62.705749
 30
0.0
 11
-358.58289
 21
54.205749
 31
0.0
  0
LINE
  8
0
 10
-388.72165
 20
63.455749
 30
0.0
 11
-359.33289
 21
63.455749
 31
0.0
  0
LINE
  8
0
 10
-388.72165
 20
53.455749
 30
0.0
 11
-359.33289
 21
53.455749
 31
0.0
  0
LINE
  8
0
 10
-387.58289
 20
62.705749
 30
0.0
 11
-358.58289
 21
62.705749
 31
0.0
  0
LINE
  8
0
 10
-387.58289
 20
54.205749
 30
0.0
 11
-358.58289
 21
54.205749
 31
0.0
  0
LINE
  8
0
 10
-358.58289
 20
62.705749
 30
0.0
 11
-359.33289
 21
63.455749
 31
0.0
  0
LINE
  8
0
 10
-358.58289
 20
54.205749
 30
0.0
 11
-359.33289
 21
53.455749
 31
0.0
  0
LINE
  8
0
 10
-387.58289
 20
62.705749
 30
0.0
 11
-387.58289
 21
54.205749
 31
0.0
  0
LINE
  8
0
 10
-387.58289
 20
62.705749
 30
0.0
 11
-389.101236
 21
63.705749
 31
0.0
  0
LINE
  8
0
 10
-387.58289
 20
54.205749
 30
0.0
 11
-389.101236
 21
53.205749
 31
0.0
  0
LINE
  8
0
 10
-391.190052
 20
126.407215
 30
0.0
 11
-391.190052
 21
119.607215
 31
0.0
  0
LINE
  8
0
 10
-391.190052
 20
119.607215
 30
0.0
 11
-392.643587
 21
118.507215
 31
0.0
  0
LINE
  8
0
 10
-391.190052
 20
126.407215
 30
0.0
 11
-392.643587
 21
127.507215
 31
0.0
  0
LINE
  8
0
 10
-417.707187
 20
118.507215
 30
0.0
 11
-392.643587
 21
118.507215
 31
0.0
  0
LINE
  8
0
 10
-417.707187
 20
127.507215
 30
0.0
 11
-392.643587
 21
127.507215
 31
0.0
  0
ARC
  8
0
 10
-406.58289
 20
123.007215
 30
0.0
 40
12.0
 50
157.975687
 51
202.024313
  0
LINE
  8
0
 10
-391.98289
 20
127.007215
 30
0.0
 11
-365.18289
 21
127.007215
 31
0.0
  0
LINE
  8
0
 10
-391.98289
 20
119.007215
 30
0.0
 11
-365.18289
 21
119.007215
 31
0.0
  0
LINE
  8
0
 10
-364.58289
 20
119.607215
 30
0.0
 11
-364.58289
 21
126.407215
 31
0.0
  0
LINE
  8
0
 10
-391.190052
 20
126.407215
 30
0.0
 11
-364.58289
 21
126.407215
 31
0.0
  0
LINE
  8
0
 10
-391.190052
 20
119.607215
 30
0.0
 11
-364.58289
 21
119.607215
 31
0.0
  0
LINE
  8
0
 10
-364.58289
 20
126.407215
 30
0.0
 11
-365.18289
 21
127.007215
 31
0.0
  0
LINE
  8
0
 10
-364.58289
 20
119.607215
 30
0.0
 11
-365.18289
 21
119.007215
 31
0.0
  0
ARC
  8
0
 10
-406.58289
 20
177.918672
 30
0.0
 40
10.0
 50
160.275366
 51
199.724634
  0
LINE
  8
0
 10
-415.996145
 20
174.543672
 30
0.0
 11
-392.45789
 21
174.543672
 31
0.0
  0
LINE
  8
0
 10
-415.996145
 20
181.293672
 30
0.0
 11
-392.457884
 21
181.293672
 31
0.0
  0
LINE
  8
0
 10
-392.08289
 20
180.918672
 30
0.0
 11
-371.08289
 21
180.918672
 31
0.0
  0
LINE
  8
0
 10
-392.08289
 20
174.918672
 30
0.0
 11
-371.08289
 21
174.918672
 31
0.0
  0
LINE
  8
0
 10
-370.58289
 20
175.418672
 30
0.0
 11
-370.58289
 21
180.418672
 31
0.0
  0
LINE
  8
0
 10
-391.582884
 20
180.418672
 30
0.0
 11
-370.58289
 21
180.418672
 31
0.0
  0
LINE
  8
0
 10
-391.58289
 20
175.418672
 30
0.0
 11
-370.58289
 21
175.418672
 31
0.0
  0
LINE
  8
0
 10
-370.58289
 20
180.418672
 30
0.0
 11
-371.08289
 21
180.918672
 31
0.0
  0
LINE
  8
0
 10
-370.58289
 20
175.418672
 30
0.0
 11
-371.08289
 21
174.918672
 31
0.0
  0
LINE
  8
0
 10
-392.45789
 20
174.543672
 30
0.0
 11
-391.58289
 21
175.418672
 31
0.0
  0
LINE
  8
0
 10
-392.457884
 20
181.293672
 30
0.0
 11
-391.582884
 21
180.418672
 31
0.0
  0
LINE
  8
0
 10
-391.582884
 20
180.418672
 30
0.0
 11
-391.58289
 21
175.418672
 31
0.0
  0
ARC
  8
0
 10
-457.372389
 20
-19.91891
 30
0.0
 40
11.1
 50
32.720443
 51
46.114017
  0
ARC
  8
0
 10
-457.372389
 20
-19.91891
 30
0.0
 40
11.1
 50
212.720443
 51
226.114017
  0
ARC
  8
0
 10
-457.372389
 20
-19.91891
 30
0.0
 40
11.1
 50
313.885983
 51
327.279557
  0
LINE
  8
0
 10
-465.067193
 20
-27.91891
 30
0.0
 11
-449.677586
 21
-27.91891
 31
0.0
  0
ARC
  8
0
 10
-457.372389
 20
-19.91891
 30
0.0
 40
11.1
 50
133.885983
 51
147.279557
  0
LINE
  8
0
 10
-465.067193
 20
-11.91891
 30
0.0
 11
-449.677586
 21
-11.91891
 31
0.0
  0
ARC
  8
0
 10
-457.372389
 20
-19.91891
 30
0.0
 40
16.0
 50
337.975687
 51
22.024313
  0
CIRCLE
  8
0
 10
-457.372389
 20
-19.91891
 30
0.0
 40
6.0
  0
CIRCLE
  8
0
 10
-457.372389
 20
-19.91891
 30
0.0
 40
5.1
  0
LINE
  8
0
 10
-472.204786
 20
-25.91891
 30
0.0
 11
-442.539992
 21
-25.91891
 31
0.0
  0
LINE
  8
0
 10
-472.204786
 20
-13.91891
 30
0.0
 11
-442.539992
 21
-13.91891
 31
0.0
  0
ARC
  8
0
 10
-457.372389
 20
-19.91891
 30
0.0
 40
16.0
 50
157.975687
 51
202.024313
  0
ARC
  8
0
 10
-406.057412
 20
-19.91891
 30
0.0
 40
11.1
 50
32.720443
 51
46.114017
  0
ARC
  8
0
 10
-406.057412
 20
-19.91891
 30
0.0
 40
11.1
 50
212.720443
 51
226.114017
  0
ARC
  8
0
 10
-406.057412
 20
-19.91891
 30
0.0
 40
11.1
 50
313.885983
 51
327.279557
  0
LINE
  8
0
 10
-413.752215
 20
-27.91891
 30
0.0
 11
-398.362608
 21
-27.91891
 31
0.0
  0
ARC
  8
0
 10
-406.057412
 20
-19.91891
 30
0.0
 40
11.1
 50
133.885983
 51
147.279557
  0
LINE
  8
0
 10
-413.752215
 20
-11.91891
 30
0.0
 11
-398.362608
 21
-11.91891
 31
0.0
  0
ARC
  8
0
 10
-450.625227
 20
58.455749
 30
0.0
 40
9.5
 50
132.536898
 51
146.452262
  0
ARC
  8
0
 10
-450.625227
 20
58.455749
 30
0.0
 40
9.5
 50
312.536898
 51
326.452262
  0
ARC
  8
0
 10
-450.625227
 20
58.455749
 30
0.0
 40
9.5
 50
213.547738
 51
227.463102
  0
ARC
  8
0
 10
-450.625227
 20
58.455749
 30
0.0
 40
9.5
 50
33.547738
 51
47.463102
  0
LINE
  8
0
 10
-457.047843
 20
65.455749
 30
0.0
 11
-444.20261
 21
65.455749
 31
0.0
  0
LINE
  8
0
 10
-457.047843
 20
51.455749
 30
0.0
 11
-444.20261
 21
51.455749
 31
0.0
  0
CIRCLE
  8
0
 10
-450.625227
 20
58.455749
 30
0.0
 40
4.25
  0
CIRCLE
  8
0
 10
-450.625227
 20
58.455749
 30
0.0
 40
5.0
  0
LINE
  8
0
 10
-463.603574
 20
53.205749
 30
0.0
 11
-437.646879
 21
53.205749
 31
0.0
  0
LINE
  8
0
 10
-463.603574
 20
63.705749
 30
0.0
 11
-437.646879
 21
63.705749
 31
0.0
  0
ARC
  8
0
 10
-450.625227
 20
58.455749
 30
0.0
 40
14.0
 50
157.975687
 51
202.024313
  0
ARC
  8
0
 10
-450.625227
 20
58.455749
 30
0.0
 40
14.0
 50
337.975687
 51
22.024313
  0
ARC
  8
0
 10
-406.58289
 20
58.455749
 30
0.0
 40
9.5
 50
132.536898
 51
146.452262
  0
ARC
  8
0
 10
-406.58289
 20
58.455749
 30
0.0
 40
9.5
 50
312.536898
 51
326.452262
  0
ARC
  8
0
 10
-406.58289
 20
58.455749
 30
0.0
 40
9.5
 50
213.547738
 51
227.463102
  0
ARC
  8
0
 10
-406.58289
 20
58.455749
 30
0.0
 40
9.5
 50
33.547738
 51
47.463102
  0
LINE
  8
0
 10
-413.005506
 20
65.455749
 30
0.0
 11
-400.160273
 21
65.455749
 31
0.0
  0
LINE
  8
0
 10
-413.005506
 20
51.455749
 30
0.0
 11
-400.160273
 21
51.455749
 31
0.0
  0
CIRCLE
  8
0
 10
-439.416272
 20
177.918672
 30
0.0
 40
2.5
  0
CIRCLE
  8
0
 10
-439.416272
 20
177.918672
 30
0.0
 40
3.0
  0
ARC
  8
0
 10
-439.416272
 20
177.918672
 30
0.0
 40
10.0
 50
160.275366
 51
199.724634
  0
LINE
  8
0
 10
-448.829527
 20
174.543672
 30
0.0
 11
-430.003017
 21
174.543672
 31
0.0
  0
LINE
  8
0
 10
-448.829527
 20
181.293672
 30
0.0
 11
-430.003017
 21
181.293672
 31
0.0
  0
ARC
  8
0
 10
-439.416272
 20
177.918672
 30
0.0
 40
10.0
 50
340.275366
 51
19.724634
  0
CIRCLE
  8
0
 10
-446.302126
 20
123.007215
 30
0.0
 40
3.4
  0
CIRCLE
  8
0
 10
-446.302126
 20
123.007215
 30
0.0
 40
4.0
  0
ARC
  8
0
 10
-446.302126
 20
123.007215
 30
0.0
 40
12.0
 50
337.975687
 51
22.024313
  0
ARC
  8
0
 10
-446.302126
 20
123.007215
 30
0.0
 40
12.0
 50
157.975687
 51
202.024313
  0
LINE
  8
0
 10
-457.426424
 20
127.507215
 30
0.0
 11
-435.177829
 21
127.507215
 31
0.0
  0
LINE
  8
0
 10
-457.426424
 20
118.507215
 30
0.0
 11
-435.177829
 21
118.507215
 31
0.0
  0
ARC
  8
0
 10
-446.302126
 20
123.007215
 30
0.0
 40
7.925
 50
214.59858
 51
229.209009
  0
ARC
  8
0
 10
-446.302126
 20
123.007215
 30
0.0
 40
7.925
 50
34.59858
 51
49.209009
  0
ARC
  8
0
 10
-446.302126
 20
123.007215
 30
0.0
 40
7.925
 50
130.790991
 51
145.40142
  0
LINE
  8
0
 10
-451.479541
 20
117.007215
 30
0.0
 11
-441.124711
 21
117.007215
 31
0.0
  0
LINE
  8
0
 10
-451.479541
 20
129.007215
 30
0.0
 11
-441.124711
 21
129.007215
 31
0.0
  0
ARC
  8
0
 10
-446.302126
 20
123.007215
 30
0.0
 40
7.925
 50
310.790991
 51
325.40142
  0
ARC
  8
0
 10
-439.416272
 20
177.918672
 30
0.0
 40
6.35
 50
134.873891
 51
147.893406
  0
LINE
  8
0
 10
-443.896507
 20
182.418672
 30
0.0
 11
-434.936038
 21
182.418672
 31
0.0
  0
LINE
  8
0
 10
-443.896507
 20
173.418672
 30
0.0
 11
-434.936038
 21
173.418672
 31
0.0
  0
ARC
  8
0
 10
-439.416272
 20
177.918672
 30
0.0
 40
6.35
 50
314.873891
 51
327.893406
  0
ARC
  8
0
 10
-439.416272
 20
177.918672
 30
0.0
 40
6.35
 50
32.106594
 51
45.126109
  0
ARC
  8
0
 10
-439.416272
 20
177.918672
 30
0.0
 40
6.35
 50
212.106594
 51
225.126109
  0
ARC
  8
0
 10
-406.58289
 20
123.007215
 30
0.0
 40
7.925
 50
214.59858
 51
229.209009
  0
ARC
  8
0
 10
-406.58289
 20
123.007215
 30
0.0
 40
7.925
 50
34.59858
 51
49.209009
  0
ARC
  8
0
 10
-406.58289
 20
123.007215
 30
0.0
 40
7.925
 50
130.790991
 51
145.40142
  0
LINE
  8
0
 10
-411.760305
 20
117.007215
 30
0.0
 11
-401.405475
 21
117.007215
 31
0.0
  0
LINE
  8
0
 10
-411.760305
 20
129.007215
 30
0.0
 11
-401.405475
 21
129.007215
 31
0.0
  0
ARC
  8
0
 10
-406.58289
 20
123.007215
 30
0.0
 40
7.925
 50
310.790991
 51
325.40142
  0
ARC
  8
0
 10
-406.58289
 20
177.918672
 30
0.0
 40
6.35
 50
134.873891
 51
147.893406
  0
LINE
  8
0
 10
-411.063124
 20
182.418672
 30
0.0
 11
-402.102655
 21
182.418672
 31
0.0
  0
LINE
  8
0
 10
-411.063124
 20
173.418672
 30
0.0
 11
-402.102655
 21
173.418672
 31
0.0
  0
ARC
  8
0
 10
-406.58289
 20
177.918672
 30
0.0
 40
6.35
 50
314.873891
 51
327.893406
  0
ARC
  8
0
 10
-406.58289
 20
177.918672
 30
0.0
 40
6.35
 50
32.106594
 51
45.126109
  0
ARC
  8
0
 10
-406.58289
 20
177.918672
 30
0.0
 40
6.35
 50
212.106594
 51
225.126109
  0
ARC
  8
0
 10
-317.233236
 20
-19.91891
 30
0.0
 40
16.0
 50
337.975687
 51
22.024313
  0
LINE
  8
0
 10
-332.065633
 20
-25.91891
 30
0.0
 11
-302.400839
 21
-25.91891
 31
0.0
  0
ARC
  8
0
 10
-317.233236
 20
-19.91891
 30
0.0
 40
16.0
 50
157.975687
 51
202.024313
  0
LINE
  8
0
 10
-332.065633
 20
-13.91891
 30
0.0
 11
-302.400839
 21
-13.91891
 31
0.0
  0
ARC
  8
0
 10
-317.233236
 20
-19.91891
 30
0.0
 40
11.1
 50
32.720443
 51
46.114017
  0
ARC
  8
0
 10
-317.233236
 20
-19.91891
 30
0.0
 40
11.1
 50
212.720443
 51
226.114017
  0
ARC
  8
0
 10
-317.233236
 20
-19.91891
 30
0.0
 40
11.1
 50
313.885983
 51
327.279557
  0
LINE
  8
0
 10
-324.928039
 20
-27.91891
 30
0.0
 11
-309.538432
 21
-27.91891
 31
0.0
  0
ARC
  8
0
 10
-317.233236
 20
-19.91891
 30
0.0
 40
11.1
 50
133.885983
 51
147.279557
  0
LINE
  8
0
 10
-324.928039
 20
-11.91891
 30
0.0
 11
-309.538432
 21
-11.91891
 31
0.0
  0
ARC
  8
0
 10
-329.739494
 20
58.455749
 30
0.0
 40
9.5
 50
132.536898
 51
146.452262
  0
ARC
  8
0
 10
-329.739494
 20
58.455749
 30
0.0
 40
9.5
 50
312.536898
 51
326.452262
  0
ARC
  8
0
 10
-329.739494
 20
58.455749
 30
0.0
 40
9.5
 50
213.547738
 51
227.463102
  0
ARC
  8
0
 10
-329.739494
 20
58.455749
 30
0.0
 40
9.5
 50
33.547738
 51
47.463102
  0
LINE
  8
0
 10
-336.162111
 20
65.455749
 30
0.0
 11
-323.316878
 21
65.455749
 31
0.0
  0
LINE
  8
0
 10
-336.162111
 20
51.455749
 30
0.0
 11
-323.316878
 21
51.455749
 31
0.0
  0
ARC
  8
0
 10
-329.739494
 20
58.455749
 30
0.0
 40
14.0
 50
337.975687
 51
22.024313
  0
ARC
  8
0
 10
-329.739494
 20
58.455749
 30
0.0
 40
14.0
 50
157.975687
 51
202.024313
  0
LINE
  8
0
 10
-342.717842
 20
63.705749
 30
0.0
 11
-316.761147
 21
63.705749
 31
0.0
  0
LINE
  8
0
 10
-342.717842
 20
53.205749
 30
0.0
 11
-316.761147
 21
53.205749
 31
0.0
  0
ARC
  8
0
 10
-338.04494
 20
123.007215
 30
0.0
 40
7.925
 50
214.59858
 51
229.209009
  0
ARC
  8
0
 10
-338.04494
 20
123.007215
 30
0.0
 40
7.925
 50
34.59858
 51
49.209009
  0
ARC
  8
0
 10
-338.04494
 20
123.007215
 30
0.0
 40
7.925
 50
130.790991
 51
145.40142
  0
LINE
  8
0
 10
-343.222355
 20
117.007215
 30
0.0
 11
-332.867525
 21
117.007215
 31
0.0
  0
LINE
  8
0
 10
-343.222355
 20
129.007215
 30
0.0
 11
-332.867525
 21
129.007215
 31
0.0
  0
ARC
  8
0
 10
-338.04494
 20
123.007215
 30
0.0
 40
7.925
 50
310.790991
 51
325.40142
  0
LINE
  8
0
 10
-349.169238
 20
118.507215
 30
0.0
 11
-326.920643
 21
118.507215
 31
0.0
  0
LINE
  8
0
 10
-349.169238
 20
127.507215
 30
0.0
 11
-326.920643
 21
127.507215
 31
0.0
  0
ARC
  8
0
 10
-338.04494
 20
123.007215
 30
0.0
 40
12.0
 50
157.975687
 51
202.024313
  0
ARC
  8
0
 10
-338.04494
 20
123.007215
 30
0.0
 40
12.0
 50
337.975687
 51
22.024313
  0
ARC
  8
0
 10
-348.433825
 20
177.918672
 30
0.0
 40
10.0
 50
340.275366
 51
19.724634
  0
LINE
  8
0
 10
-357.847081
 20
181.293672
 30
0.0
 11
-339.02057
 21
181.293672
 31
0.0
  0
LINE
  8
0
 10
-357.847081
 20
174.543672
 30
0.0
 11
-339.02057
 21
174.543672
 31
0.0
  0
ARC
  8
0
 10
-348.433825
 20
177.918672
 30
0.0
 40
10.0
 50
160.275366
 51
199.724634
  0
ARC
  8
0
 10
-348.433825
 20
177.918672
 30
0.0
 40
6.35
 50
134.873891
 51
147.893406
  0
LINE
  8
0
 10
-352.91406
 20
182.418672
 30
0.0
 11
-343.953591
 21
182.418672
 31
0.0
  0
LINE
  8
0
 10
-352.91406
 20
173.418672
 30
0.0
 11
-343.953591
 21
173.418672
 31
0.0
  0
ARC
  8
0
 10
-348.433825
 20
177.918672
 30
0.0
 40
6.35
 50
314.873891
 51
327.893406
  0
ARC
  8
0
 10
-348.433825
 20
177.918672
 30
0.0
 40
6.35
 50
32.106594
 51
45.126109
  0
ARC
  8
0
 10
-348.433825
 20
177.918672
 30
0.0
 40
6.35
 50
212.106594
 51
225.126109
  0
LINE
  8
0
 10
-33.566554
 20
-299.879351
 30
0.0
 11
-36.066554
 21
-297.379351
 31
0.0
  0
LINE
  8
0
 10
-33.566554
 20
-269.879351
 30
0.0
 11
-36.066554
 21
-272.379351
 31
0.0
  0
LINE
  8
0
 10
-107.69926
 20
-297.379351
 30
0.0
 11
-36.066554
 21
-297.379351
 31
0.0
  0
LINE
  8
0
 10
-107.69926
 20
-272.379351
 30
0.0
 11
-36.066554
 21
-272.379351
 31
0.0
  0
ARC
  8
0
 10
-75.007518
 20
-284.879351
 30
0.0
 40
35.0
 50
159.075168
 51
200.924832
  0
LINE
  8
0
 10
34.992482
 20
-298.879351
 30
0.0
 11
34.992482
 21
-270.879351
 31
0.0
  0
LINE
  8
0
 10
-33.566554
 20
-269.879351
 30
0.0
 11
33.992482
 21
-269.879351
 31
0.0
  0
LINE
  8
0
 10
-33.566554
 20
-299.879351
 30
0.0
 11
33.992482
 21
-299.879351
 31
0.0
  0
LINE
  8
0
 10
-32.007518
 20
-270.879351
 30
0.0
 11
34.992482
 21
-270.879351
 31
0.0
  0
LINE
  8
0
 10
-32.007518
 20
-298.879351
 30
0.0
 11
34.992482
 21
-298.879351
 31
0.0
  0
LINE
  8
0
 10
34.992482
 20
-270.879351
 30
0.0
 11
33.992482
 21
-269.879351
 31
0.0
  0
LINE
  8
0
 10
34.992482
 20
-298.879351
 30
0.0
 11
33.992482
 21
-299.879351
 31
0.0
  0
LINE
  8
0
 10
-32.007518
 20
-298.879351
 30
0.0
 11
-32.007518
 21
-270.879351
 31
0.0
  0
LINE
  8
0
 10
-32.007518
 20
-270.879351
 30
0.0
 11
-33.566554
 21
-269.879351
 31
0.0
  0
LINE
  8
0
 10
-32.007518
 20
-298.879351
 30
0.0
 11
-33.566554
 21
-299.879351
 31
0.0
  0
ARC
  8
0
 10
-75.007518
 20
-284.879351
 30
0.0
 40
25.5
 50
29.35347
 51
46.509642
  0
ARC
  8
0
 10
-75.007518
 20
-284.879351
 30
0.0
 40
25.5
 50
209.35347
 51
226.509642
  0
ARC
  8
0
 10
-75.007518
 20
-284.879351
 30
0.0
 40
25.5
 50
133.490358
 51
150.64653
  0
ARC
  8
0
 10
-75.007518
 20
-284.879351
 30
0.0
 40
25.5
 50
313.490358
 51
330.64653
  0
LINE
  8
0
 10
-92.557447
 20
-266.379351
 30
0.0
 11
-57.457589
 21
-266.379351
 31
0.0
  0
LINE
  8
0
 10
-92.557447
 20
-303.379351
 30
0.0
 11
-57.457589
 21
-303.379351
 31
0.0
  0
ARC
  8
0
 10
-75.007518
 20
-131.398782
 30
0.0
 40
21.4
 50
30.931885
 51
46.41057
  0
ARC
  8
0
 10
-75.007518
 20
-131.398782
 30
0.0
 40
21.4
 50
210.931885
 51
226.41057
  0
ARC
  8
0
 10
-75.007518
 20
-131.398782
 30
0.0
 40
21.4
 50
133.58943
 51
149.068115
  0
ARC
  8
0
 10
-75.007518
 20
-131.398782
 30
0.0
 40
21.4
 50
313.58943
 51
329.068115
  0
LINE
  8
0
 10
-89.762517
 20
-115.898782
 30
0.0
 11
-60.252519
 21
-115.898782
 31
0.0
  0
LINE
  8
0
 10
-89.762517
 20
-146.898782
 30
0.0
 11
-60.252519
 21
-146.898782
 31
0.0
  0
LINE
  8
0
 10
-41.315042
 20
-143.398782
 30
0.0
 11
-42.315042
 21
-142.398782
 31
0.0
  0
LINE
  8
0
 10
-41.315042
 20
-119.398782
 30
0.0
 11
-42.315042
 21
-120.398782
 31
0.0
  0
LINE
  8
0
 10
-102.91809
 20
-142.398782
 30
0.0
 11
-42.315042
 21
-142.398782
 31
0.0
  0
LINE
  8
0
 10
-102.91809
 20
-120.398782
 30
0.0
 11
-42.315042
 21
-120.398782
 31
0.0
  0
LINE
  8
0
 10
18.992482
 20
-142.398782
 30
0.0
 11
18.992482
 21
-120.398782
 31
0.0
  0
LINE
  8
0
 10
-41.315042
 20
-119.398782
 30
0.0
 11
17.992482
 21
-119.398782
 31
0.0
  0
LINE
  8
0
 10
-41.315042
 20
-143.398782
 30
0.0
 11
17.992482
 21
-143.398782
 31
0.0
  0
ARC
  8
0
 10
-75.007518
 20
-131.398782
 30
0.0
 40
30.0
 50
158.489812
 51
201.510188
  0
LINE
  8
0
 10
-40.007518
 20
-120.398782
 30
0.0
 11
18.992482
 21
-120.398782
 31
0.0
  0
LINE
  8
0
 10
-40.007518
 20
-142.398782
 30
0.0
 11
18.992482
 21
-142.398782
 31
0.0
  0
LINE
  8
0
 10
18.992482
 20
-120.398782
 30
0.0
 11
17.992482
 21
-119.398782
 31
0.0
  0
LINE
  8
0
 10
18.992482
 20
-142.398782
 30
0.0
 11
17.992482
 21
-143.398782
 31
0.0
  0
LINE
  8
0
 10
-40.007518
 20
-142.398782
 30
0.0
 11
-40.007518
 21
-120.398782
 31
0.0
  0
LINE
  8
0
 10
-40.007518
 20
-120.398782
 30
0.0
 11
-41.315042
 21
-119.398782
 31
0.0
  0
LINE
  8
0
 10
-40.007518
 20
-142.398782
 30
0.0
 11
-41.315042
 21
-143.398782
 31
0.0
  0
LINE
  8
0
 10
73.892488
 20
-297.379351
 30
0.0
 11
139.275972
 21
-297.379351
 31
0.0
  0
LINE
  8
0
 10
73.892488
 20
-272.379351
 30
0.0
 11
139.275972
 21
-272.379351
 31
0.0
  0
ARC
  8
0
 10
106.58423
 20
-284.879351
 30
0.0
 40
35.0
 50
159.075168
 51
200.924832
  0
ARC
  8
0
 10
106.58423
 20
-284.879351
 30
0.0
 40
35.0
 50
339.075168
 51
20.924832
  0
ARC
  8
0
 10
106.58423
 20
-284.879351
 30
0.0
 40
25.5
 50
29.35347
 51
46.509642
  0
ARC
  8
0
 10
106.58423
 20
-284.879351
 30
0.0
 40
25.5
 50
209.35347
 51
226.509642
  0
ARC
  8
0
 10
106.58423
 20
-284.879351
 30
0.0
 40
25.5
 50
133.490358
 51
150.64653
  0
ARC
  8
0
 10
106.58423
 20
-284.879351
 30
0.0
 40
25.5
 50
313.490358
 51
330.64653
  0
LINE
  8
0
 10
89.034302
 20
-266.379351
 30
0.0
 11
124.134159
 21
-266.379351
 31
0.0
  0
LINE
  8
0
 10
89.034302
 20
-303.379351
 30
0.0
 11
124.134159
 21
-303.379351
 31
0.0
  0
LINE
  8
0
 10
57.483382
 20
-142.398782
 30
0.0
 11
113.304525
 21
-142.398782
 31
0.0
  0
LINE
  8
0
 10
57.483382
 20
-120.398782
 30
0.0
 11
113.304525
 21
-120.398782
 31
0.0
  0
ARC
  8
0
 10
85.393954
 20
-131.398782
 30
0.0
 40
30.0
 50
158.489812
 51
201.510188
  0
ARC
  8
0
 10
85.393954
 20
-131.398782
 30
0.0
 40
30.0
 50
338.489812
 51
21.510188
  0
ARC
  8
0
 10
85.393954
 20
-131.398782
 30
0.0
 40
21.4
 50
30.931885
 51
46.41057
  0
ARC
  8
0
 10
85.393954
 20
-131.398782
 30
0.0
 40
21.4
 50
210.931885
 51
226.41057
  0
ARC
  8
0
 10
85.393954
 20
-131.398782
 30
0.0
 40
21.4
 50
133.58943
 51
149.068115
  0
ARC
  8
0
 10
85.393954
 20
-131.398782
 30
0.0
 40
21.4
 50
313.58943
 51
329.068115
  0
LINE
  8
0
 10
70.638954
 20
-115.898782
 30
0.0
 11
100.148953
 21
-115.898782
 31
0.0
  0
LINE
  8
0
 10
70.638954
 20
-146.898782
 30
0.0
 11
100.148953
 21
-146.898782
 31
0.0
  0
ARC
  8
0
 10
-75.007518
 20
2.251182
 30
0.0
 40
19.0
 50
31.756864
 51
47.463102
  0
ARC
  8
0
 10
-75.007518
 20
2.251182
 30
0.0
 40
19.0
 50
211.756864
 51
227.463102
  0
ARC
  8
0
 10
-75.007518
 20
2.251182
 30
0.0
 40
19.0
 50
132.536898
 51
148.243136
  0
LINE
  8
0
 10
-87.852751
 20
-11.748818
 30
0.0
 11
-62.162286
 21
-11.748818
 31
0.0
  0
LINE
  8
0
 10
-87.852751
 20
16.251182
 30
0.0
 11
-62.162286
 21
16.251182
 31
0.0
  0
ARC
  8
0
 10
-75.007518
 20
2.251182
 30
0.0
 40
19.0
 50
312.536898
 51
328.243136
  0
LINE
  8
0
 10
-40.842175
 20
-8.748818
 30
0.0
 11
-41.842175
 21
-7.748818
 31
0.0
  0
LINE
  8
0
 10
-40.842175
 20
13.251182
 30
0.0
 11
-41.842175
 21
12.251182
 31
0.0
  0
LINE
  8
0
 10
-100.087391
 20
-7.748818
 30
0.0
 11
-41.842175
 21
-7.748818
 31
0.0
  0
LINE
  8
0
 10
-100.087391
 20
12.251182
 30
0.0
 11
-41.842175
 21
12.251182
 31
0.0
  0
ARC
  8
0
 10
-75.007518
 20
2.251182
 30
0.0
 40
27.0
 50
158.261539
 51
201.738461
  0
LINE
  8
0
 10
8.992482
 20
12.451182
 30
0.0
 11
8.992482
 21
-7.948818
 31
0.0
  0
LINE
  8
0
 10
-40.842175
 20
13.251182
 30
0.0
 11
8.192482
 21
13.251182
 31
0.0
  0
LINE
  8
0
 10
-40.842175
 20
-8.748818
 30
0.0
 11
8.192482
 21
-8.748818
 31
0.0
  0
LINE
  8
0
 10
-39.507518
 20
12.451182
 30
0.0
 11
8.992482
 21
12.451182
 31
0.0
  0
LINE
  8
0
 10
-39.507518
 20
-7.948818
 30
0.0
 11
8.992482
 21
-7.948818
 31
0.0
  0
LINE
  8
0
 10
8.992482
 20
12.451182
 30
0.0
 11
8.192482
 21
13.251182
 31
0.0
  0
LINE
  8
0
 10
8.992482
 20
-7.948818
 30
0.0
 11
8.192482
 21
-8.748818
 31
0.0
  0
LINE
  8
0
 10
-39.507518
 20
12.451182
 30
0.0
 11
-39.507518
 21
-7.948818
 31
0.0
  0
LINE
  8
0
 10
-39.507518
 20
12.451182
 30
0.0
 11
-40.842175
 21
13.251182
 31
0.0
  0
LINE
  8
0
 10
-39.507518
 20
-7.948818
 30
0.0
 11
-40.842175
 21
-8.748818
 31
0.0
  0
ARC
  8
0
 10
-162.710983
 20
2.251182
 30
0.0
 40
19.0
 50
31.756864
 51
47.463102
  0
ARC
  8
0
 10
-162.710983
 20
2.251182
 30
0.0
 40
19.0
 50
211.756864
 51
227.463102
  0
ARC
  8
0
 10
-162.710983
 20
2.251182
 30
0.0
 40
19.0
 50
132.536898
 51
148.243136
  0
LINE
  8
0
 10
-175.556215
 20
-11.748818
 30
0.0
 11
-149.86575
 21
-11.748818
 31
0.0
  0
LINE
  8
0
 10
-175.556215
 20
16.251182
 30
0.0
 11
-149.86575
 21
16.251182
 31
0.0
  0
ARC
  8
0
 10
-162.710983
 20
2.251182
 30
0.0
 40
19.0
 50
312.536898
 51
328.243136
  0
ARC
  8
0
 10
-75.007518
 20
132.081078
 30
0.0
 40
17.5
 50
210.949723
 51
225.584691
  0
ARC
  8
0
 10
-75.007518
 20
132.081078
 30
0.0
 40
17.5
 50
30.949723
 51
45.584691
  0
ARC
  8
0
 10
-75.007518
 20
132.081078
 30
0.0
 40
17.5
 50
314.415309
 51
329.050277
  0
LINE
  8
0
 10
-87.254967
 20
144.581078
 30
0.0
 11
-62.760069
 21
144.581078
 31
0.0
  0
LINE
  8
0
 10
-87.254967
 20
119.581078
 30
0.0
 11
-62.760069
 21
119.581078
 31
0.0
  0
ARC
  8
0
 10
-75.007518
 20
132.081078
 30
0.0
 40
17.5
 50
134.415309
 51
149.050277
  0
ARC
  8
0
 10
-157.130204
 20
132.081078
 30
0.0
 40
17.5
 50
210.949723
 51
225.584691
  0
ARC
  8
0
 10
-157.130204
 20
132.081078
 30
0.0
 40
17.5
 50
30.949723
 51
45.584691
  0
ARC
  8
0
 10
-157.130204
 20
132.081078
 30
0.0
 40
17.5
 50
314.415309
 51
329.050277
  0
LINE
  8
0
 10
-169.377652
 20
144.581078
 30
0.0
 11
-144.882755
 21
144.581078
 31
0.0
  0
LINE
  8
0
 10
-169.377652
 20
119.581078
 30
0.0
 11
-144.882755
 21
119.581078
 31
0.0
  0
ARC
  8
0
 10
-157.130204
 20
132.081078
 30
0.0
 40
17.5
 50
134.415309
 51
149.050277
  0
LINE
  8
0
 10
43.530863
 20
-7.748818
 30
0.0
 11
93.690608
 21
-7.748818
 31
0.0
  0
LINE
  8
0
 10
43.530863
 20
12.251182
 30
0.0
 11
93.690608
 21
12.251182
 31
0.0
  0
ARC
  8
0
 10
68.610736
 20
2.251182
 30
0.0
 40
27.0
 50
158.261539
 51
201.738461
  0
ARC
  8
0
 10
68.610736
 20
2.251182
 30
0.0
 40
27.0
 50
338.261539
 51
21.738461
  0
ARC
  8
0
 10
68.610736
 20
2.251182
 30
0.0
 40
19.0
 50
31.756864
 51
47.463102
  0
ARC
  8
0
 10
68.610736
 20
2.251182
 30
0.0
 40
19.0
 50
211.756864
 51
227.463102
  0
ARC
  8
0
 10
68.610736
 20
2.251182
 30
0.0
 40
19.0
 50
132.536898
 51
148.243136
  0
LINE
  8
0
 10
55.765503
 20
-11.748818
 30
0.0
 11
81.455968
 21
-11.748818
 31
0.0
  0
LINE
  8
0
 10
55.765503
 20
16.251182
 30
0.0
 11
81.455968
 21
16.251182
 31
0.0
  0
ARC
  8
0
 10
68.610736
 20
2.251182
 30
0.0
 40
19.0
 50
312.536898
 51
328.243136
  0
LINE
  8
0
 10
33.77094
 20
123.081078
 30
0.0
 11
80.418555
 21
123.081078
 31
0.0
  0
LINE
  8
0
 10
33.77094
 20
141.081078
 30
0.0
 11
80.418555
 21
141.081078
 31
0.0
  0
ARC
  8
0
 10
57.094748
 20
132.081078
 30
0.0
 40
25.0
 50
158.899804
 51
201.100196
  0
ARC
  8
0
 10
57.094748
 20
132.081078
 30
0.0
 40
25.0
 50
338.899804
 51
21.100196
  0
ARC
  8
0
 10
57.094748
 20
132.081078
 30
0.0
 40
17.5
 50
210.949723
 51
225.584691
  0
ARC
  8
0
 10
57.094748
 20
132.081078
 30
0.0
 40
17.5
 50
30.949723
 51
45.584691
  0
ARC
  8
0
 10
57.094748
 20
132.081078
 30
0.0
 40
17.5
 50
314.415309
 51
329.050277
  0
LINE
  8
0
 10
44.847299
 20
144.581078
 30
0.0
 11
69.342196
 21
144.581078
 31
0.0
  0
LINE
  8
0
 10
44.847299
 20
119.581078
 30
0.0
 11
69.342196
 21
119.581078
 31
0.0
  0
ARC
  8
0
 10
57.094748
 20
132.081078
 30
0.0
 40
17.5
 50
134.415309
 51
149.050277
  0
ENDSEC
  0
EOF
